Staind - Mudshovel Chords & Tabs

 

Mudshovel Chords & Tabs

Staind Chords & Tabs

Version: 2 Type: Tab 0 ratings
1 star 2 stars 3 stars 4 stars 5 stars
comments

Mudshovel Tab

Bass (Intro)
G|-----------------------------------------------------------------------------------|
D|-----------------------------------------------------------------------------------|
A|--0-0-0-0-0-0-0-0-0-0--3-3-3-3-3-3-3-3-3-3-----------------------------------------|
D|------------------------------------------0-0-0-0-0-0-0-0-0-0-0-0-0-0-0-0-0-0-0-0--|



Guitar
Harmonics approximated

e|---------------------------------------------------------|
B|---------------------------------------------------------|
G|---------------------------------------------------------| REPEAT
D|---------------------------------------------------------|
A|---/5--4.75--4--3.75--3.5--3--3.5--3.75--4--4.75--5\-----|			 	
D|---------------------------------------------------------|		

[ Tab from: http://www.guitartabs.cc/tabs/s/staind/mudshovel_tab_ver_2.html ]
*Verse
		
Ring Harmonic on 5th fret for first half of verse	
come in with running harmonics for second half

e|---------------------------------|
B|---------------------------------|
G|---------------------------------|  
D|---------------------------------|
A|---*5----------------------------|
D|---------------------------------|
        
*CHORUS:
e---------------------------------------------------------|
B---------------------------------------------------------|
G--2-2--2-2--2-2--2-2--2--2--5----------------------------| REPEAT
D--2-2--2-2--2-2--2-2--2--2--3--0-0-0-0-0-0-0-0-0-0---5---|
A--0-0--0-0--0-0--0-0--0--0--3--0-0-0-0-0-0-0-0-0-0---3---|
D-------------------------------0-0-0-0-0-0-0-0-0-0---3---|

	
BRIDGE/OUTRO
e-------------------------------|
B-------------------------------|
G-------------------------------|  
D---3-0-6-0-1-0-----------------|
A---3-0-6-0-1-0-----------------|
D---3-0-6-0-1-0-----------------|

Comments