Staind - Mudshovel Chords & Tabs

 

Mudshovel Chords & Tabs

Staind Chords & Tabs

Version: 1 Type: Tab 0 ratings
1 star 2 stars 3 stars 4 stars 5 stars
comments

Mudshovel Tab

   
Song: Mudshovel
Artist: Staind
Album: Dysfunctional
Transcribed By: Lee(crazy_freik) 

Ive seen alot of tabs on this song and I can't beleive people tab this
in standered tunning.

This is the correct tunning Db Ab Db Gb Bb Eb
*harmonics
X-palm mute

Intro, this is nothing but bass.


The guitar goes like this
Eb----------------------------------------------------------------
Bb----------------------------------------------------------------
Gb----------------------------------------------------------------
Db----------------------------------------------------------------
Ab----------------------------------------------------------------
Db-5*5*5*-4*4*4*-3*3*3*--4*4*4*-5*5*5*----------------------------
Play with album to get the correct style.

Verse
[ Tab from: http://www.guitartabs.cc/tabs/s/staind/mudshovel_tab.html ]
Db-------------------------------
Ab-5*----------------------3*---- Let these notes ring out
Db------------3*-----------------

Prechorus

Db--------------------------------------
Ab--------------------------------------
Db-5*5*5*--4*4*4*-3*3*3*--4*4*4*--5*5*5*

Chorus

Eb--------------------------------------------
Bb--------------------------------------------
Gb-22-22-22-22-22--5---------------------5----
Db-22-22-22-22-22--5--00-00-00-00-00-00--3----
Ab-00-00-00-00-00--3--00-00-00-00-00-00--3----
Db--------------------00-00-00-00-00-00--3----

Repeat everything 


Bridge

Db-3-0-6-0-1-0------
Ab-3-0-6-0-1-0------
Db-3-0-6-0-1-0------

then the bass plays
After that the guitar
plays the chorus again.



This version of the song is 98% correct, if you have anything to say 
email me at crazy_freik@yahoo.com
I know this song is old but I cant staind a bad tab.
Comments