Staind - Mudshovel Chords & Tabs

 

Mudshovel Chords & Tabs

Staind Chords & Tabs

Version: 9 Type: Bass Tab 0 ratings
1 star 2 stars 3 stars 4 stars 5 stars
comments

Mudshovel Bass Tab

Dropped D Tuning
Intro/Verse
|-------------------------------------------------------------------|
|-------------------------------------------------------------------|
|00-00-00-0000000-33-33-33-3333333----------------------------------|
|----------------------------------00-00-00-0000000-00-00-00-0000000|
Chorus
|---------------------------|
|---------------------------|
|-----------2---------------|    
|0-0-0-0-0-0-----0-0-0-0-0-5|       
Bridge
|---------------|
|---------------|
|---------------|
|5--0--6--0--3-0|

This song is an easy song to learn and to play. Have some fun with it!
[ Tab from: http://www.guitartabs.cc/tabs/s/staind/mudshovel_btab_ver_9.html ]
Comments