Staind - Mudshovel Chords & Tabs

 

Mudshovel Chords & Tabs

Staind Chords & Tabs

Version: 8 Type: Bass Tab 0 ratings
1 star 2 stars 3 stars 4 stars 5 stars
comments

Mudshovel Bass Tab

Tabs submitted by John Dixon
You'll need to tune E down to D

Intro
G----------------------------------------------------------------------
D----------------------------------------------------------------------
A-00-00-00-0000000-33-33-33-3333333------------------------------------
D-----------------------------------00-00-00-0000000-00-00-00-0000000--
[ Tab from: http://www.guitartabs.cc/tabs/s/staind/mudshovel_btab_ver_8.html ]
Verse
G----------------------------------------------------------------------
D----------------------------------------------------------------------
A-00-00-00-0000000-33-33-33-3333333------------------------------------
D-----------------------------------00-00-00-0000000-00-00-00-0000000--

Chorus
G--------------------------------------
D--------------------------------------
A--------------------------------------
D-1-2--1-2--1-2--3--1-2--1-2--1-2--0---
Comments