Staind - Mudshovel Chords & Tabs

 

Mudshovel Chords & Tabs

Staind Chords & Tabs

Version: 7 Type: Bass Tab 0 ratings
1 star 2 stars 3 stars 4 stars 5 stars
comments

Mudshovel Bass Tab

Tabbed By Nathan Roth
STAIND/Mudshovel

-=INTRO=-
G>-------------------------------------------------------------------
D>-------------------------------------------------------------------
A>--00-00-00-000000--22-22-22-222222---------------------------------
E>-----------------------------------00-00-00-000000-00-00-00-000000-
[ Tab from: http://www.guitartabs.cc/tabs/s/staind/mudshovel_btab_ver_7.html ]
-=VERSE=-
G>-------------------------------------------------------------------
D>-------------------------------------------------------------------
A>--00-00-00-000000--22-22-22-222222---------------------------------
E>-----------------------------------00-00-00-000000-00-00-00-000000-

-=CHOURUS=-
G>--------------------------------------------------------------------
D>--------------------------------------------------------------------
A>--------------------------------------------------------------------
E>-1-3--1-3--1-3-5-5-0-5----------------------------------------------

And That is prety much it
Comments