Staind - Mudshovel Chords & Tabs

 

Mudshovel Chords & Tabs

Staind Chords & Tabs

Version: 10 Type: Bass Tab 0 ratings
1 star 2 stars 3 stars 4 stars 5 stars
comments

Mudshovel Bass Tab

   
this song is an easy built song and really gets u pumped up... well for me it does haha
it REQUIRES a 5 string... u cant really do it on anything else unless u made all the low notes higher ones
but that sounds really poopy  haha

                                  low        high
tuning is (Ab or 1 1/2steps down) (Ab,Db,Gb,B,E)


(00:00)
|--------------------------------------------------------------------------|
|-------------------0-0-0-0-0-0-000000-------------------------------------|
|-2-2-2-2-2-2-222222-----------------------------------------------------|x9
|-------------------------------------0-0-0-0-0-0-000000-0-0-0-0-0-0-000000|
|--------------------------------------------------------------------------|


(01:20)
|--------------------------------------------------------------------------|
|--------------------------------------------------------------------------|
|------------------------------------------------------------------------|x2
|--------------------------------------------------------------------------|
|-0-0-0-0-00-3-3-3-33333-5-5-5-5-55-3-3-3-33333----------------------------|

(01:38)
|--------------------------------------------------------------------------|
|-------------------0-0-0-0-0-0-000000-------------------------------------|
|-2-2-2-2-2-2-222222-----------------------------------------------------|x5
|-------------------------------------0-0-0-0-0-0-000000-0-0-0-0-0-0-000000|
|--------------------------------------------------------------------------|

[ Tab from: http://www.guitartabs.cc/tabs/s/staind/mudshovel_btab_ver_10.html ]
(02:22)
|--------------------------------------------------------------------------|
|--------------------------------------------------------------------------|
|------------------------------------------------------------------------|x2
|--------------------------------------------------------------------------|
|-0-0-0-0-00-3-3-3-33333-5-5-5-5-55-3-3-3-33333----------------------------|

(02:40)
|--------------------------------------------------------------------------|
|--------------------------------------------------------------------------|
|------------------------------------------------------------------------|x8
|-5---6--------------------------------------------------------------------|
|---5---0-0-1-1------------------------------------------------------------|

(02:58)
|--------------------------------------------------------------------------|
|-------------------0-0-0-0-0-0-000000-------------------------------------|
|-2-2-2-2-2-2-222222-----------------------------------------------------|x5
|-------------------------------------0-0-0-0-0-0-000000-0-0-0-0-0-0-000000|
|--------------------------------------------------------------------------|


(03:44)
|--------------------------------------------------------------------------|
|--------------------------------------------------------------------------|
|------------------------------------------------------------------------|x4
|--------------------------------------------------------------------------|
|-0-0-0-0-00-3-3-3-33333-5-5-5-5-55-3-3-3-33333----------------------------|

(04:20)
|--------------------------------------------------------------------------|
|--------------------------------------------------------------------------|
|------------------------------------------------------------------------|x8
|-5---6--------------------------------------------------------------------|
|---5---0-0-1-1------------------------------------------------------------|
Comments