Staind - Me Chords & Tabs

 

Me Chords & Tabs

Staind Chords & Tabs

Version: 1 Type: Tab 0 ratings
1 star 2 stars 3 stars 4 stars 5 stars
comments

Me Tab

   
#----------------------------------PLEASE NOTE--------------------------------#
#This file is the author's own work and represents their interpretation of the#
#song. You may only use this file for private study, scholarship, or research.#
#-----------------------------------------------------------------------------#
#-- File created with Instab - http://www.pconline.com/~smcarey/instab.html --#
#-----------------------------------------------------------------------------#

Author/Artist: Staind
Title: Me
Album: Dysfunction
Transcribed by: Ryan Eslinger
Email: sublimors@yahoo.com
Tuning: Ab Db Ab Db Gb Bb

this is my first tab. pretty much correct. please email me with comments.
[ Tab from: http://www.guitartabs.cc/tabs/s/staind/me_tab.html ]
intro clean tone	    and now i wear it on my sleave          distorted
|-------------------------|                    |------------------| |-----|
|-------------------------|                    |------------------| |-----|
|------4----4------4--4p3-|                    |------4----4p3h4--| |-----|
|--3-3----3----3-3--------|                    |--3-3----3--------| |-----|
|--3-3----3----3-3--------|                    |--3-3----3--------| |--3--|
|-------------------------|                    |------------------| |--1--|

                                                                              
 clean tone      chorus distorted             Look at me    im so pathetic         
|---------|   			|---------------------------------------|
|--9------|   			|-/9------------------------------------|
|----7----|   			|-----7-----12-12------12---------------|
|------6--|   			|--------6--10-10------10---3-----------|
|---------|   			|-----------10-10------13---3--------0--|
|---------|   			|-----------10-10------10---3--------4--|

                                                                              
Bridge
|--------0--12--------------------------------------------------|
|--------------12--------------0-------------------0------------|
|----9------------0--12-----7-------------------7---------------|
|------0-----------------8-------------------8------------------|
|--7------------------------------9h10--9------------9h10--9----|
|---------------------------------------------------------------|
                                                                              

Comments