Staind - Let It Out Chords & Tabs

 

Let It Out Chords & Tabs

Staind Chords & Tabs

Version: 2 Type: Tab 0 ratings
1 star 2 stars 3 stars 4 stars 5 stars
comments

Let It Out Tab

   
This is the song that all you people who bought the new album (14 shades of grey)
can download from staind.com in the vip section. I'm 100% possitive on this.

Verses
    Bm                 C
Eb|-------------------------------------|
Bb|----3-----3-----3-----3-----3-----3--|
Gb|------0-----0-----------0-----0------|
Db|-------------------------------------|
Ab|--2-----2-----2-----3-----3-----3----|
Eb|-------------------------------------|
     F#                G
Eb|-------------------------------------|
Bb|----3-----3-----3-----3-----3-----3--|
Gb|------0-----0-----------0-----0------|
Db|-------------------------------------|
Ab|-------------------------------------|
Eb|--2-----2-----2-----3-----3-----3----|

The last time you play it on each verse play it like this.
     Bm                C
Eb|-------------------------------------|
Bb|----3-----3-----3-----3-----3-----3--|
Gb|------0-----0-----------0-----0------|
Db|-------------------------------------|
Ab|--2-----2-----2-----3-----3-----3----|
Eb|-------------------------------------|
     F#                G
Eb|--------------------3--|
Bb|----3-----3-----3---3--|
Gb|------0-----0-------0--|
Db|--------------------0--|
Ab|--------------------x--|
Eb|--2-----2-----2-----3--|


Chorus
[ Tab from: http://www.guitartabs.cc/tabs/s/staind/let_it_out_tab_ver_2.html ]
     Em  Bm  C   G
Eb|--0---2---0---3--|
Bb|--0---3---1---3--|
Gb|--0---4---0---0--|
Db|--2---4---2---0--|
Ab|--2---2---3---x--|
Eb|--0-----------3--|



Theres nothing left Nothing left to hold onto
There is no reason for me to fight anymore
I let it all go It will be easier I know
The weight on my shoulders tells me so

So now i stand here to sing another song for you
About the pain i felt before when there was nothing I could do
Now I staind here nothing left to say to you
But if you all could sing along it might help you make it thru

I tried to move on Nothing left to hurt me now
I hope its all in the past to stay
Just try to see thru all the fucked up shit we do
And hope that we all don't drift away

So now i stand here to sing another song for you
About the pain i felt before when there was nothing I could do
Now I staind here nothing left to say to you
But if you all could sing along it might help you make it thru

So let it all out Nothing left to hold on to
There is no reason for me to fight anymore
I let it all go Feel so much better now I know
The weight on my shoulders tells me so

So now i stand here to sing another song for you
About the pain i felt before when there was nothing I could do
Now I staind here nothing left to say to you
But if you all could sing along it might help you make it thru

Theres nothing left None of its worth holding on to
There is no reason for you to fight anymore
Comments