Staind - Let It Out Chords & Tabs

 

Let It Out Chords & Tabs

Staind Chords & Tabs

Version: 1 Type: Tab 0 ratings
1 star 2 stars 3 stars 4 stars 5 stars
comments

Let It Out Tab

   
This is a song you get when you buy the 14 shades of grey cd and
download it from the staind website.  Download it and listen for
the rythm.  www.staind.com  goto the VIP section.


eb ----------------- ----------------- 
Bb ---3-----3-----3- ---3-----3-----3- 
Gb -----0-----0----- -----0-----0----- 
Db ----------------- ----------------- 
Ab -2-----2-----2--0 -3-----3-----3--0   [Verse]
Eb ----------------- -----------------

eb ----------------- ----------------- 
Bb ---3-----3-----3- ---3-----3-----3-
Gb -----0-----0----- -----0-----0-----   [Verse]
Db ----------------- -----------------
Ab ----------------- -----------------
Eb -2-----2-----2--0 -3-----3-----3---
[ Tab from: http://www.guitartabs.cc/tabs/s/staind/let_it_out_tab.html ]
-------------------------------------------------
I am 85% sure this is right.

    A  Em A  Em A
eb -----------------  
Bb ----1-----1------ 
Gb -1--2--1--2--1---    [Chorus]
Db -2--2--2--2--2--- 
Ab -2-----2-----2--- 
Eb ----------------- 

A        Em   
So now I stand here
A     Em      A         Em        [Listen close for the switch]
To sing another song for you
A     Em      A          Em
About the pain I felt before
A       Em      A          Em
When there was nothing I could do

________________________________________________________
Well that's it.  I am preety sure its right.  Its a great song.
STAND KICKS ALL ASS!!!!!!!!!!
________________________________________________________
Comments