Staind - King Of All Excuses Chords & Tabs

 

King Of All Excuses Chords & Tabs

Staind Chords & Tabs

Version: 1 Type: Tab

King Of All Excuses Tab

[Intro]

e---------------|
B---------------|
G---------------|
D---2-0-2-0-2/3-|
A---2-0-2-0-2/3-|
E---2-0-2-0-2/3-| 6x

[Verse 1&2]
Pm.........................................|
e------------------------------------------|
B------------------------------------------|
G------------------------------------------|
D---2-2-2-2-0-0-0-0-3-3-3-3-0-0-0-0-0-0-0-0|
A---2-2-2-2-0-0-0-0-3-3-3-3-0-0-0-0-0-0-0-0|
E---2-2-2-2-0-0-0-0-3-3-3-3-0-0-0-0-0-0-0-0|

[Chorus]
[ Tab from: http://www.guitartabs.cc/tabs/s/staind/king_of_all_excuses_tab.html ]
e-----------------------------------|
B-----------------------------------|
G---9-9-9-9-7-7-7-7-----------------|
D---9-9-9-9-7-7-7-7-7-7-7-7-9-9-9-9-|
A---7-7-7-7-5-5-5-5-7-7-7-7-9-9-9-9-|
E-------------------5-5-5-5-7-7-7-7-|

Lead part

e---------------------------|
B---------------------------|
G---9-9-7-7-----12-12-11-11-|
D-----------7-7-------------|
A---------------------------|
E --------------------------|
[Verse]

[Bridge]

e---------------------------------------------------|
B---------------------------------------------------|
G---------------------------------------------------|
D---------------------------------------------------|
A---------------------------------------------------|
E---5-5-5-5-5-5-5-5-5-5-5-5-5-5-5-5-5-5-5-5-5-5-5-5-|

e---------------|
B---------------|
G---------------|
D---2-2-0-0-5-3-|
A---2-2-0-0-5-3-|
E---2-2-0-0-5-3-|
Chorus
Intro