Staind - Just Go Chords & Tabs

 

Just Go Chords & Tabs

Staind Chords & Tabs

Version: 7 Type: Tab 0 ratings
1 star 2 stars 3 stars 4 stars 5 stars
comments

Just Go Tab

   
 Drop D (DADGBe)

INTRO
e-------------------------------|-------------------------|
B-------------------------------|-------------------------|
G-------------------------------|-------------------------|
D-1-----------------------------|-1-----------------------|
A---1-3-3^4^3-3-----------------|---1-3-3^4^3-3-----------|
D---------------0-3h5-5-5-3-3-0-|---------------0-3h5-5-3-|

CHORUS
e-------------------------------|-------------------------|
B-------------------------------|-------------------------|
G-------------------------------|-------------------------|
D-1-----------------------------|-1-----------------------|
A---1-3-3^4^3-3-0-3h5-5-5-3-3-0-|---1-3-3^4^3-3-----------|
D---------------0-3h5-5-5-3-3-0-|---------------0-3h5-5-3-|
[ Tab from: http://www.guitartabs.cc/tabs/s/staind/just_go_tab_ver_7.html ]
VERSE
e---------|  |-------|
B---------|  |-------|
G---------|  |-------|
D-1-------|  |-1-----|
A---1-3-3-|  |---1-0-|
D---------|7x|-------|

BRIDGE pt.1   I feel so alone...
e-------| |--------------------|  |-------------------|
B-------| |-6-5-7-5-8-5-6-5-8-5|  |-6-5-7-5-8-5-6-5-8-|
G-------| |--------------------|  |-------------------|
D-1-----| |--------------------|  |-------------------|
A-1-----| |--------------------|  |-------------------| 
D-1-----| |--------------------|  |-------------------| 

BRIDGE pt.2  I'm water...
e-----------------|
B-----------------|
G-----------------|
D-0-2-0-2-0-2-0-2-|
A-0-2-0-2-0-2-0-2-|
D-0-2-0-2-0-2-0-2-| on last one, last chord is D# power chord, not E

OUTRO pt.1  just, just...
e-------|
B-------|
G-------|
D-----0-|
A-1---0-|
D---1-0-|

OUTRO pt.2   lies, lies, lies, etc.
e---------------------------|
B---------------------------|
G---------------------------|
D-----0-----0-----0-----0-0-|
A-----0-----0-----0-----0-0-|
D-----0-----0-----0-----0-0-|
Comments