Staind - Just Go Chords & Tabs

 

Just Go Chords & Tabs

Staind Chords & Tabs

Version: 5 Type: Tab 0 ratings
1 star 2 stars 3 stars 4 stars 5 stars
comments

Just Go Tab

just go-staind 
tabbed by-Manuel"el cholo"and transcribbed by-Api"el carnal de las  
estrellas" 
dj_mongletal@hotmail.com 

justgo correct-I think it's the best tab you can find of this song 

Tunning:standart 

Symbols: 

\/= bend down 
/\= bend up 





intro 

------------------------------------------------------------------ 
------------------------------------------------------------------ 
------------------------------------------------------------------ 
--2--------------------------------------------------------------- 
----2--4--4/\--4/\--4\/------------------------------------------- 
-------------------------2--2--4--4--4--2--2--0------------------- 



------------------------------------------------------------------ 
------------------------------------------------------------------ 
------------------------------------------------------------------ 
--2--------------------------------------------------------------- 
----2--4--4/\--4/\--4\/------------------------------------------- 
-------------------------2--2--4--4--2---------------------------- 

chorus 

--2--2--4--4\/--4--4--2--2--4---4--4--2--2--0--------------------- 
--2--2--4--4\/--4--4--2--2--4---4--4--2--2--0--------------------- 
--2--2--4--4\/--4--4--2--2--4---4--4--2--2--0--------------------- 
--2--2--4--4\/--4--4--2--2--4---4--4--2--2--0--------------------- 
--2--2--4--4\/--4--4--2--2--4---4--4--2--2--0--------------------- 
-----2--4--4\/--4--4--2--2--4---4--4--2--2--0--------------------- 



--2--2--4--4\/--4--4--2--2--4---4--2------------------------------ 
--2--2--4--4\/--4--4--2--2--4---4--2------------------------------ 
--2--2--4--4\/--4--4--2--2--4---4--2------------------------------ 
--2--2--4--4\/--4--4--2--2--4---4--2------------------------------ 
--2--2--4--4\/--4--4--2--2--4---4--2------------------------------ 
-----2--4--4\/--4--4--2--2--4---4--2------------------------------ 

verse 
[ Tab from: http://www.guitartabs.cc/tabs/s/staind/just_go_tab_ver_5.html ]
------------------------------------------------------------------ 
------------------------------------------------------------------ 
------------------------------------------------------------------ 
--2--------------------------------------------------------------- 
-----2---4--4----------------------------------------------------- 
------------------------------------------------------------------ 

bridge 

--------------5--------------------------------------------------- 
--6--5--8--6-----5--8--6------------------------------------------ 
------------------------------------------------------------------ 
------------------------------------------------------------------ 
------------------------------------------------------------------ 
-----------------------------7------------------------------------ 

i'm water... 
--0--2--0--2--0--2--0--2------------------------------------------ 
--0--2--0--2--0--2--0--2------------------------------------------ 
--0--2--0--2--0--2--0--2------------------------------------------ 
--0--2--0--2--0--2--0--2------------------------------------------ 
--0--2--0--2--0--2--0--2------------------------------------------ 
--0--2--0--2--0--2--0--2------------------------------------------ 

outro 

--------0--------------------------------------------------------- 
--------0--------------------------------------------------------- 
--------0--------------------------------------------------------- 
--2-----0--------------------------------------------------------- 
-----2--0--------------------------------------------------------- 
--------0--------------------------------------------------------- 

lies lies... 

--0----0----0----0---------------------------------------------------- 
--0----0----0----0---------------------------------------------------- 
--0----0----0----0---------------------------------------------------- 
--0----0----0----0---------------------------------------------------- 
--0----0----0----0----------------------------------------------------- 
--0----0----0----0----------------------------------------------------- 

Puto Ficachi    Puto Panque    Puto Pera    Puto Chema    Puto Rata    Puto  
Su PaPa 
Comments