Staind - Just Go Chords & Tabs

 

Just Go Chords & Tabs

Staind Chords & Tabs

Version: 4 Type: Tab 0 ratings
1 star 2 stars 3 stars 4 stars 5 stars
comments

Just Go Tab

Staind Just go.
 Tabbed by Brad Coolbeg343@aol.com.
  
Ok this is a better version of the intro to just go

[ Tab from: http://www.guitartabs.cc/tabs/s/staind/just_go_tab_ver_4.html ]
----------------------------------------------------------------- 
------------------------------------------------------------------ 
------------------------------------------------------------------ 
--6-------------------6---------------6------------------------- 
-----6---8--8-----------6---8--8--------6---8--8-------------- 
------------------------------------------------------------------ 

------------------------------------------------------------------ 
------------------------------------------------------------------ 
------------------------------------------------------------------ 
--6--------------------------------------------------------------- 
-----6--5------------------------------------------------------ 

I read somewhere that this was how Mike plays it 
:: Ultimate Guitar Archive :: 
http://www.ultimate-guitar.com 



Comments