Staind - Just Go Chords & Tabs

 

Just Go Chords & Tabs

Staind Chords & Tabs

Version: 1 Type: Tab 0 ratings
1 star 2 stars 3 stars 4 stars 5 stars
comments

Just Go Tab

staind
just go
dysfunction

as always i promise this is 100% correct!!!!!!!!!!!!!!!

dropped d tuning
the 1/2 is a half step bend and release


---------------------------------------
---------------------------------------
---------------------------------------
---------------------------------------
-8---------5-1/2-----------------------
----10/0-----------3/5---5-5/3--3/0----

repeat then add this ending

---------
---------
---------
---------
---------
-3/5--5-3

next hard part
[ Tab from: http://www.guitartabs.cc/tabs/s/staind/just_go_tab.html ]
-----------------------------------
-----------------------------------
-----------------------------------
-10--------------------------------
-8---------5-1/2----3/5--5-5/3--3/0
----10/0------------3/5--5-5/3--3/0


verse

---------------------------------------------
---------------------------------------------
---------------------------------------------
---------------------------------------------
-8----------8----------8-----------8---------
---10/0--0----10/0--0-----10/0--0-----10/0--0










Comments