Staind - Just Go Chords & Tabs

 

Just Go Chords & Tabs

Staind Chords & Tabs

Version: 2 Type: Bass Tab 0 ratings
1 star 2 stars 3 stars 4 stars 5 stars
comments

Just Go Bass Tab

Staind
Just Go
Dysfunction
Transcribed by bta member Tyler Edwards

man i dont know what t say about this tab except i was just listening to the 
cd messing around on my bass at the same time and i figured it out within 5 
min. and im not joking. its not hard at all. so try it
[ Tab from: http://www.guitartabs.cc/tabs/s/staind/just_go_btab_ver_2.html ]
            CHORUS / INTRO
            ^^^^^^ ^ ^^^^^
G|---------------------------------------------------|
D|-2----------------------------2--------------------|
A|---2---4^-----------------------2--4^--------------|
E|-----------4p0-0h2-2-2-0-0-0-----------4p0-0h2-2-0-|

             VERSE
             ^^^^^
G|----------------------|
D|----------------------|
A|--4-RING-2-2H4--RING--|
E|----------------------|

     OUTRO
     ^^^^^
G|----------|
D|----------|
A|----2-----|
E|--0-----2-|

questions or comments, u can contact me bye email (korn4_@hotmail.com) or by 
icq 37134476 is my number
Comments