Staind - Its Been Awhile Chords & Tabs

 

Its Been Awhile Chords & Tabs

Staind Chords & Tabs

Version: 8 Type: Tab 0 ratings
1 star 2 stars 3 stars 4 stars 5 stars
comments

Its Been Awhile Tab

   
Staind, It's been a while.
 Tabbed by Greg Mousseau, Moose2113.
  
Staind - Break the cycle - It's been a while

Tuning: standard

The guy in Staind uses a baritone guitar (Ab Db Ab Db Gb Bb)
and dosen't use the bottom string. I hate tuning my guitar differently
so i re-tabed this so you don't need to change the tuning.


[ Tab from: http://www.guitartabs.cc/tabs/s/staind/its_been_awhile_tab_ver_8.html ]
INTRO
e---------------------------------------------------------------
B-------4-------------------------------------------------------
G---6-----6---6---------4-3--------------------------6-4--------
D-------------------4-------4-----3-4--3---------4-------4------
A-6---6-----6-----2---2---------4--------4---6-6---6-------6----
D-----------------------------4---------------------------------




chorus
e--------------------------------------------------------
B--------------------------------------------------------
G--------------------------------------------------------
D----------4-4-------------6-6--------------------------
A--6-6-----2-2-----4-4-----4-4---------------------------
D--4-4-------------2-2-----------------------------------




This isn't exact but sounds close and east to play close without 
having to completely re-turn your guitar. If you want it to sound good i 
suggust you get the real tab.

Tabbed by: Greg Mousseau 
:: Ultimate Guitar Archive :: 
http://www.ultimate-guitar.com 



Comments