Staind - Its Been Awhile Chords & Tabs

 

Its Been Awhile Chords & Tabs

Staind Chords & Tabs

Version: 6 Type: Tab 0 ratings
1 star 2 stars 3 stars 4 stars 5 stars
comments

Its Been Awhile Tab

Song: It's Been Awhile
Group: Staind
CD: Break the Cycle
Tabber: Joseph Aguirre
Email: mexicano3@hotmail.com

This is a basic version of the song, i know what chords he's playing
but I'm pretty sure my picking isn't exact.  I'm kinda hoping someone
will help me smooth this out. But here it is...

*Intro/Verse*

D----------------------------------------------------
A----------------------------------------------------
F---------10-8---------------------------------------
C-----8---------8-----11-----13-11-------------------
G-------8----------------11--------11----------------
C---8--------------11-----------------11-------------
[ Tab from: http://www.guitartabs.cc/tabs/s/staind/its_been_awhile_tab_ver_6.html ]
D----------------------------------------------------
A--------------------------4--2-1h2------------------
F--------8--6----------------------------------------
C----6---------6-------1-----------------------------
G------6-------------1---1---------------------------
C--6---------------1---------------------------------

*Chorus*

D----------------------------------------------------
A--11-----------------14------9-----------4----------
F--10-----------------13------8-----------3----------
C--8------------------11------6-----------1----------
G--8------------------11------6-----------1----------
C--8------------------11------6-----------1-----------

      "And everything I can't remember..."


And I haven't figured out the rest, if you have any suggestions 
or comments or whatever email me at mexicano3@hotmail.com
Comments