Staind - Its Been Awhile Chords & Tabs

 

Its Been Awhile Chords & Tabs

Staind Chords & Tabs

Version: 5 Type: Tab 12 ratings
1 star 2 stars 3 stars 4 stars 5 stars
comments

Its Been Awhile Tab

This is the right way to play the arppegiated part at the beginning

-|-------0---------------------------------------------|-----------------------
-|---3-----3---------1p0------------------------3p1----|-----------------------
-|-----2-----2---0-------0----0---0---------0-------0--|-----------------------
-|-----------------2------2-----4---4-----4---4-------2|-----------------------
-|-0-----------3----------------------5-5--------------|-----------------------
-|--------------------------3--------------------------|-----------------------

Chorus
[ Tab from: http://www.guitartabs.cc/tabs/s/staind/its_been_awhile_tab_ver_5.html ]
-|-------------------------|------------------------------|-------------------
-|-------------------------|------------------------------|-------------------
-|-2-2--5-5-------7-7--7-7-|-2-2--5-5--7-7--5-5\4-4/5-5\4-|-------------------
-|-2-2--5-5--5-5--7-7--7-7-|-2-2--5-5---------------------|-------------------
-|-0-0--3-3--5-5--5-5--5-5-|-0-0--3-3--5-5--3-3\2-2/3-3\2-|-------------------
-|------3-3--3-3--5-5--5-5-|------3-3---------------------|-------------------
  Guitar 1 Chorus           Guitar 2 Chorus                                   

-|-----------|----------|--------------------------------------------
-|-----------|----------|---------------------------------------------
-|------7-7--|----------|---------------------------------------------
-|-5-5--7-7--|-7-7--7-7-|--------------------------------------------
-|-5-5--5-5--|-7-7--7-7-|--------------------------------------------
-|-3-3--5-5--|-5-5--5-5-|---------------------------------------------
other part    
Comments