Staind - Its Been Awhile Chords & Tabs

 

Its Been Awhile Chords & Tabs

Staind Chords & Tabs

Version: 3 Type: Tab 0 ratings
1 star 2 stars 3 stars 4 stars 5 stars
comments

Its Been Awhile Tab

Hey, This a New Song From Staind, I heard it for the first time today 
On KROCK, so I ran home and downloaded it.  It kinda makes you pick 
up your guitar.  Well Here it is.

Standard Tuning 

Intro

|-----------------|-----------------|
|--------4--------|-----------------|
|------6---6------|--------6-5------|
|----6-------6----|------6-----6----|
|--4-----------0--|----6---------0--|
|-----------------|--4--------------|
[ Tab from: http://www.guitartabs.cc/tabs/s/staind/its_been_awhile_tab_ver_3.html ]
|-----------------|-----------------|
|--------2--------|-----------------|
|------4---4------|--------4-3------|
|----4-------4----|------4-----4----|
|--2-----------0--|----4---------0--|
|-----------------|--2--------------|


The Chorus is just those chords played out

|----------------|
|----------------|
|--6--6--4--4----|
|--6--6--4--4----|
|--4--6--2--4----|
|-----4-----2----|


Keep An Eye Out For Altered State...peace
Comments