Staind - Its Been Awhile Chords & Tabs

 

Its Been Awhile Chords & Tabs

Staind Chords & Tabs

Version: 11 Type: Tab 0 ratings
1 star 2 stars 3 stars 4 stars 5 stars
comments

Its Been Awhile Tab

   
Staind, It's been awhile.
 Tabbed by Unforgiven 2, hackingthematrix@hotmail.com.
  
Staind - It's been awhile

I'm not sure about the Solo, but i think it sounds correct when you play it against the CD.

There are two guitars playing.

Verse

Guitar nr 1.
Elec.

e-----------------------------------------------------------------
B-----------------------------------------------------------------
G---7---9-7---7-----0---5-4---------0---0---------------7-5-------
D---------------------------5-----4---4---4---------5-------5-----
A-7---7-----7-----3---3-----------5---------5-----7---7-------7---
E---------------------------------5-------------0-----------------

Guitar nr 2.
acoustic

e--------0-----------0-------------------------2-------------------
B----1-----1-----1-----1---------0---------3-----3-----------------
G------2-----2-----2-----2---0-----0-----2---2-----2---------------
D------------------------------0-----0-0---------------------------
A--0-----------3---------------------------------------------------
E--------------------------3---------------------------------------

Guitar nr 2.
acoustic
Just strum the chords.
[ Tab from: http://www.guitartabs.cc/tabs/s/staind/its_been_awhile_tab_ver_11.html ]
   Am    C   G5  D
e|------------3--2----
B|-1-----1----3--3----
G|-2-----0----0--2----
D|-2-----2----0--0----
A|-------3----2-------
E|------------3-------

Guitar nr 1.
Elec.

e------------------------------------------------------------------
B------------------------------------------------------------------
G------------------------------------------------------------------
D--6---6---6-6--9---9---9-9--4---4---4-4---9-9-8--9----------------
A--6---6---6-6--9---9---9-9--4---4---4-4---9-9-8--9----------------
E--4---4---4-4--7---7---7-7--2---2---2-2---7-7-6--7----------------

The solo part is just a slide on the A, D and G strings, but it sounds good.

e------------------------------------------------------------------
B------------------------------------------------------------------
G---11---8/11---8/6---6/8---6--------------------------------------
D---11---8/11---8/6---6/8---6---4---4---4-4---9-9-8--9-------------
A---9----6/9----6/4---4/6---4---4---4---4-4---9-9-8--9-------------
E-------------------------------2---2---2-2---7-7-6--7-------------

 
:: Ultimate Guitar Archive :: 
http://www.ultimate-guitar.com 



Comments