Staind - Its Been Awhile Chords & Tabs

 

Its Been Awhile Chords & Tabs

Staind Chords & Tabs

Version: 10 Type: Tab 0 ratings
1 star 2 stars 3 stars 4 stars 5 stars
comments

Its Been Awhile Tab

Band:  Staind
Song:  It's Been Awhile
Album: Breack the Cycle

Note: This is my first tab, however this is 100% accurate (at least the intro is!) and I
figured it out myself with some help of my friends, so here it is. 
E-mail me if you find any errors...titis_santoso@hotmail.com

INTRO and VERSES: (Tune down half step)
E:------0--------------------------------------------------|
B:---3----3----------1-0--------------------------3--1-----|
G:-----2---------0-------0----0---0-----------0--------0---|
D:-----------------2------------4---4----0--2---2--------2-|
A:-0-------0-2-3----------------------5--------------------|
E:--------------------------3------------------------------|
[ Tab from: http://www.guitartabs.cc/tabs/s/staind/its_been_awhile_tab_ver_10.html ]
CHORUS:
E:------   E:------   E:--3---   E:--0--
B:--1---   B:--1---   B:--3---   B:--3--
G:--2---   G:--0---   G:--0---   G:--2--
D:--2---   D:--2---   D:--0---   D:--0--
A:--0---   A:--3---   A:--2---   A:-----
E:------   E:------   E:--3---   E:-----

MIDDLE PART: While the electric guitar is playing his part, the acoustic goes something
	     like this:

E:--3--   E:--0--   E:-----   E:-----
B:--3--   B:--3--   B:--1--   B:--1--
G:--0--   G:--2--   G:--0--   G:--2--
D:--0--   D:--0--   D:--2--   D:--2--
A:--2--   A:-----   A:--3--   A:--0--
E:--3--   E:-----   E:-----   E:-----

OUTRO:
E:------0---------------------|
B:---3----3----------1-0------|
G:-----2---------0-------0--0-|
D:-----------------2--------4-|
A:-0-------0-2-3------------5-|
E:--------------------------3-|

This is basicall how the song goes, just watch how the strumming and timing goes and you'll
eventually will play it correctly. It's a great song have fun!

Comments