Staind - Its Been Awhile Chords & Tabs

 

Staind Chords & Tabs

Version: 1 Type: Chords 0 ratings
1 star 2 stars 3 stars 4 stars 5 stars
comments

Its Been Awhile Chords

Transcribed by: David Liew (a.k.a dcclay)

hi! i have been searching for this tab for quite some time, and most
of them that i found is full of mistakes. This song is reaaal cool and 
sounds great! anyway here's my version.
p.s - if theres something u wanna ask just email me at dc_joc@hotmail.com

Standard tuning dropped 1/2

Intro
-|-------0--------------------------------------0-------|
-|---1-----1-----1---1-0--------------------3-----3-----|
-|-----2-----2-----0-----0---0---0--------2---2-----2---|
-|-----------------------------0---4-0--0---------------|
-|-0-----------3----------------------------------------|
-|-------------------------3----------------------------|
[ Tab from: http://www.guitartabs.cc/tabs/s/staind/its_been_awhile_crd.html ]
verse
-|-------0---3-------0---3----------------------0-------|
-|---1-----1-----1-----1--------------------3-----3-----|
-|-----2-----------2---------0---0--------2---2-----2---|
-|-----------------------------0---4-0--0---------------|
-|-0-----------3----------------------------------------|
-|-------------------------3----------------------------|

Chorus (Distortion)
-|--------------------------|---------------------------------|
-|--------------------------|---------------------------------|
-|-2-2--5-5-------7-7--7-7--|-2-2--5-5--7-7--5-5\4-4/5-5\4----|
-|-2-2--5-5--5-5--7-7--7-7--|-2-2--5-5------------------------|
-|-0-0--3-3--5-5--5-5--5-5--|-0-0--3-3--5-5--3-3\2-2/3-3\2----|
-|------3-3--3-3--5-5--5-5--|------3-3------------------------|

Guitar 1                         Guitar 2

solo (2.30)
-|----------------------------|
-|----------------------------|
-|-12\9/12-12\9/11---9--7--5--|
-|----------------------------|
-|-10\7/10-10\7/9----7--5--3--|
-|----------------------------|

repeat for awhile


well thats all!! hope u enjoyed it!
Comments