Staind - Its Been Awhile Chords & Tabs

 

Its Been Awhile Chords & Tabs

Staind Chords & Tabs

Version: 1 Type: Bass Tab 0 ratings
1 star 2 stars 3 stars 4 stars 5 stars
comments

Its Been Awhile Bass Tab

This is how I think it goes....

Main Riff 1 (It starts out quiet for a few measures, then gets louder.)

G-----------------------------------------------------------------------------
D-----------------------------------------------------------------------------
A---------2----------------4-------2----------------------------------------
E--4-------------2-----------------------------------------------------------
B-----------------------------------------------------------------------------

Main Riff 2 (This is only a slight variation from Riff 1)
[ Tab from: http://www.guitartabs.cc/tabs/s/staind/its_been_awhile_btab.html ]
G--------------------------------------------------------------------------------
D--------------------------------------------------------------------------------
A----------------1--2------2-------2----------------4-----4-4---4----2--------
E--4--------2 4-------------------------4----4--4--------------------------4---
B--------------------------------------------------------------------------------

Chorus and Bridge (There is a slight variation between the Chorus and Bridge, but it's only an extra note or two, so it couldn't be very hard for you to figure out.)

G-------------------------------------------------------------------------------
D------------------------------------------------------------------------------
A------------------2--22---2-------------------------------------------------
E--------4---4--------------------2---2---2----------------------------------
B------------------------------------------------22---2---2-----2-2---------


A very cool, very easy song. Rock on, Staind!
Comments