Staind - Its Been Awhile Acoustic Chords & Tabs

 

Its Been Awhile Acoustic Chords & Tabs

Staind Chords & Tabs

Version: 2 Type: Tab 0 ratings
1 star 2 stars 3 stars 4 stars 5 stars
comments

Its Been Awhile Acoustic Tab

   
Author/Artist: Staind
Title: It's Been Awhile
Album: Break The Cycle
Transcribed by: Eugene Prokopenko
Email: hotfoontik@hotmail.com

intro and verses:

[-------------0-----------------------------------]
[-------3--------3------0-------------1-----------]
[-----------------------------0------------0-----0]
[----------2--------2-------------2-----------2---]
[----0---------------------3----------------------]
[-------------------------------------------------]

[-------------------------------------------------]
[--------------------------------------3---1------]
[------0-------0----------------0-------------2---]
[--0-------0-------0--------0-------0-------------]
[--x-------------------2--------------------------]
[--3----------------------3-----------------------]


Chorus:

There are three lyrical versions of the chorus in the song,
but the chord progression is the same for all three.  Here
is one version.

[ Tab from: http://www.guitartabs.cc/tabs/s/staind/its_been_awhile_acoustic_tab_ver_2.html ]
Am          Cmaj7          G6     Dsus2
  And everything I can remember
Am             Cmaj7          G6     Dsus2
  Is f**ked up as it always seemed
Am          Cmaj7          G6     Dsus2
  The consequences that I rendered
Am      Cmaj7          G6     Dsus2
  Gonna f**k things up again

Bridge:

Am                      G6    Dsus2
  Why must I feel this way?
Am                   G6    Dsus2
  Just make this go away
Am                        G6    Dsus2
  Just one more peaceful day


  Am  Cmaj7  G6  Dsus2
[--0----0-----0-----0--]
[--1----0-----3-----3--]
[--2----0-----0-----2--]
[--2----2-----0-----0--]
[--0----3-----2-----0--]
[-------------3--------]


That's the song.  Tune down 1/2 step if you sound completely off.
Comments