Staind - Its Been Awhile 7 String Chords & Tabs

 

Its Been Awhile 7 String Chords & Tabs

Staind Chords & Tabs

Version: 1 Type: Tab 0 ratings
1 star 2 stars 3 stars 4 stars 5 stars
comments

Its Been Awhile 7 String Tab

   
I'ts been awhile-7 string arr.
Transcribed by:Jess Yager
E-mail-jetfire@transformersonline.com

  This tab version is for those of you out there who have 7-string
guitars and do'nt want to spend extra time retuning for every song
you play.

Tuning:
E,B,G,D,A,E,B

Verse:(clean electric-or acoustic guitar)
  *Let notes ring throughout
     --------------------|------------------|-------------------|
     --------------------|------------------|-------------------|
     ------6-----8--6----|------------------|-------------------|
     ------------------6-|----9-----9--8----|-------------------|
     --------------------|----------------9-|----9-----9--8-----|
     ---4-----4----------|-7-----7----------|----------------9--|
     --------------------|------------------|-8-----8-----------|

     -----------------------|  Repeat pattern up to the chorus
     ---------------2--0----|
     -----------------------|
     ------1--4--1--------4-|
     -----------------------|
     -----------------------|
     ---2-------------------|
[ Tab from: http://www.guitartabs.cc/tabs/s/staind/its_been_awhile_7_string_tab.html ]
Chorus:(Heavy distortion)
     -------|-------|-------|-------|Repeat Chorus 4 times then go 
     -------|-------|-------|-------|to verse 2
     -------|-------|-------|-------|
     ---6---|-------|---4---|-------|
     ---6---|---2---|---4---|---4---|
     ---4---|---2---|---2---|---4---|
     -------|---0---|-------|---2---|

Verse 2:(same as first verse repeat until chorus)

Chorus 2:(same as first chorus only go on to the bridge)

Bridge:(guitars remain in heavy dist)
     -------|-------|
     -------|-------|
     -------|-------|
     ---4---|-------|
     ---4---|---4---|
     ---2---|---4---|
     -------|---2---|

Verse 3:(same as previous verses going straight to Chorus 3-do not 
pass go do not collect $200:)-)

Chorus 3:(same as previous 2 going to outro)

Outro:
     ----------------------|----------------------|---------------||
     ----------------------|----------------------|---------------||
     ------6-----8--6------|----------------------|---------------||
     ------------------6---|------9-----9--8------|---------------||
     ----------------------|------------------9---|------9-----9--||
     ---4-----4------------|---7-----7------------|---------------||
     ----------------------|----------------------|---7-----7-----||

well that's that I hope that helps some people out if there are any 
questions please e-mail me at my above address

Comments