Staind - Its Been A While Chords & Tabs

 

Its Been A While Chords & Tabs

Staind Chords & Tabs

Version: 5 Type: Tab 0 ratings
1 star 2 stars 3 stars 4 stars 5 stars
comments

Its Been A While Tab

#----------------------------------PLEASE NOTE--------------------------------#
#This file is the author's own work and represents their interpretation of the#
#song. You may only use this file for private study, scholarship, or research.#
#-----------------------------------------------------------------------------#
#-- File created with Instab - http://www.pconline.com/~smcarey/instab.html --#
#-----------------------------------------------------------------------------#

Author/Artist: Staind
Title: It's Been Awhile
Album: Break the Cycle
Transcribed by: Bert deWaardto
Email: hbstuey56@aol.com

This is my first tab, so i know its not correct but it still sounds really rad. 
If you like it then thats cool but if you dont, thengo ahead write a better one.
 I just wrote it because the tab wasn't out yet, and I think this song is awesom
e. So have fun with it! 

I used standard, with drop 1/2 step
Riff #1 intro, and main thingy
[ Tab from: http://www.guitartabs.cc/tabs/s/staind/its_been_a_while_tab_ver_5.html ]
------------------------------------------------------------------------------
----------------------------------------------------5-------------------------
-------5---------------7------------------------7-----7-----------------------
---7-----7-------10------10-------5---5-------7---7-----7---------------------
-----7-----7--------10------10------5---5---5---------------------------------
-5-----------5-8----------------3---------3-----------------------------------
   Plays once, then second time, guitar 2 plays octaves                       

-----------------------------------------5-5-5-5-5-5-x------------------------
-----------------------------------------5-5-5-5-5-5-x------------------------
---------------5--5-5--5-x---------------7-7-7-7-7-7-x------------------------
--7--7-7--7-x--5--5-5--5-x--5--5-5--5-5--7-7-7-7-7-7-x------------------------
--7--7-7--7-x--3--3-3--3-x--5--5-5--5-5--5-5-5-5-5-5-x------------------------
--5--5-5--5-x--3--3-3--3-x--3--3-3--3-3---------------------------------------
 Chrous plays with distortion (obviously)                                     

------------------------------------------------------------------------------
--7/9-9-7/9-9---7/9-9-7/9-9-7/9-9---------------------------------------------
------------------------------------------------------------------------------
------------------------------------------------------------------------------
------------------------------------------------------------------------------
------------------------------------------------------------------------------
 plays durring guitar1(0:34 and 1:40 and 3:10)                                

Comments