Staind - Its Been A While Chords & Tabs

 

Its Been A While Chords & Tabs

Staind Chords & Tabs

Version: 1 Type: Tab 7 ratings
1 star 2 stars 3 stars 4 stars 5 stars
comments

Its Been A While Tab

Song: It's Been Awhile
Band: Staind
From: Break The Cycle
By:   Adam Urbz
Mail: pickboy87@cs.com

I have this song tabbed out for 3 guitars: 2 electrics and 
an acoustic. The electric (Gtrs.1&2) is tuned Ab,Db,Ab,Db,Gb,Bb
(I got the tuning from Guitar One so it should be right). The
acoustic (Gtr.3) is tuned down one half step: Eb,Ab,Db,Gb,Bb,Eb. 
This tab sounds exactly like the recording so enjoy!

   Intro:					       	       Gtr.1
Bb|-----------------------------------------------------------------|
Gb|--------------------------------------0---0--------------7p5-----|
Db|----12---14-12------9--9---10-9-----4---4---4--------5-------5---|
Ab|---------------0----10----------10\-5---------5----7---7-------7-|
Db|-14---14---------0--10---10---------5------------0---------------|
Ab|--0----0---------------------------------------------------------|
  |							       Gtr.3|
Eb|-----------------------------------------------------------------|
Bb|----------3-----------------1------------------------1---3p1-----|
Gb|-----0-------0---------0------0-------0---0--------0---0-----0---|
Db|--2----2-------2-----------------0--0---0---0----0-------------0-|
Ab|--0--------------0---3----3-------3-x----------------------------|
Eb|------------------------------------3---------3------------------|
[ Tab from: http://www.guitartabs.cc/tabs/s/staind/its_been_a_while_tab.html ]
   Chorus:					               Gtr.1
Bb|-----------------------------------------------------------------|
Gb|-----------------------------------------------------------------|
Db|-7--7-7---------------5--5-5-------------------------------------|
Ab|-7--7-7---------------5--5-5---0-0--0--0-------------------------|
Db|-7--7-7---5-5--5--5---5--5-5---0-0--0--0-------------------------|
Ab|----------3-3--3--3----------------------------------------------|
  |							       Gtr.2|
Bb|-----------------------------------------------------------------|
Gb|-9--9-9/12-12-12-12-\7---7-7--7-7\5-4/5-5\4-5/-------------------|
Db|-x--x-x--x--x--x--x-\x---x-x--x-x-x-x-x-x-x-x--------------------|
Ab|-7--7-7/10-10-10-10-\5---5-5--5-5\3-2/3-3\2-3/-------------------|
Db|-----------------------------------------------------------------|
Ab|-----------------------------------------------------------------|
  |							       Gtr.3|
Eb|-0--0-0---0-0--0--0---3--3-3---2-2--2--2-------------------------|
Bb|-1--1-1---1-1--1--1---3--3-3---3-3--3--3-------------------------|
Gb|-2--2-2---0-0--0--0---0--0-0---2-2--2--2-------------------------|
Db|-2--2-2---2-2--2--2---0--0-0---0-0--0--0-------------------------|
Ab|-0--0-0---3-3--3--3---x--x-x-------------------------------------|
Eb|----------------------3--3-3-------------------------------------|

   Bridge:						       Gtr.1
Bb|-------------------------------------0------0--------------------|
Gb|---------------------------------------5------5-0----------------|
Db|-5---5--5----0--0----0-0-----(7)-(7)-----7---------4-------------|
Ab|-5---5--5----0--0----0-0------7---7------------------------------|
Db|-5---5--5----0--0----0-0------7---7------------------------------|
Ab|------------------------------0---0------------------------------|
  |							       Gtr.2|
Bb|-----------------------------------------------------------------|
Gb|-12--9/12\9--7-------5/7\5----2----------------------------------|
Db|-x---x-x--x--x-------x--------x----------------------------------|
Ab|-10--7/10\7--5-------3/5\3----0----------------------------------|
Db|-----------------------------------------------------------------|
Ab|-----------------------------------------------------------------|
  |							       Gtr.3|
Bb|-3---3--3----2--2----2-2------0-0-0-0-0-0-0-0-0--0-0-0-0---------|
Gb|-3---3--3----3--3----3-3------1-1-1-1-1-1-1-1-1--1-1-1-1---------|
Db|-0---0--0----2--2----2-2------2-2-2-2-2-2-2-2-2--2-2-2-2---------|
Ab|-0---0--0----0--0----0-0------2-2-2-2-2-2-2-2-2--2-2-2-2---------|
Db|-x---x--x---------------------0-0-0-0-0-0-0-0-0--0-0-0-0---------|
Ab|-3---3--3--------------------------------------------------------|

That's the entire song-the right way. If you have any questions or
corrections or anything else,feel free to e-mail me. Thanx.



                        



Comments