Staind - Its Been A While Chords & Tabs

 

Its Been A While Chords & Tabs

Staind Chords & Tabs

Version: 1 Type: Chords 1 rating
1 star 2 stars 3 stars 4 stars 5 stars
comments

Its Been A While Chords

   
Its Been A while by Staind.
tabbed by Mat Mcmanus

GOD, I've seen so many wrong versions of this song its not even 
funny, anyway, im positive this is 100% correct:

Acoustic Guitar Tuned down 1/2 step:
[ Tab from: http://www.guitartabs.cc/tabs/s/staind/its_been_a_while_crd.html ]
eb|----------------------------------------------------------------|
Bb|---------3---------------3--------------3------------3----------|
Gb|----2------2---------0-----0-0-0----------0---0----0---2--0-----|
Db|------2------2--0--------------0------------0---0------------0--|
Ab|--0-------------0--3---3----------------------------------------|
Eb|----------------------------------3---3-------------------------|

Chorus: strum these chords
    Am   C    G5   D
eb|-0----0----3----2----|
Bb|-1----1----3----3----|
Gb|-2----0----0----2----|
Db|-2----2----0----0----|
Ab|-0----3----x---------|
Eb|-----------3---------|

Bridge:
   G5    D   Am   C 
eb|-3----2----0---0----|
Bb|-0----3----1---1----|
Gb|-0----2----2---0----|
Db|-0----0----2---2----|
Ab|-x---------0---3----|
Eb|-3------------------|



Comments