Staind - Intro Chords & Tabs

 

Intro Chords & Tabs

Staind Chords & Tabs

Version: 1 Type: Tab 0 ratings
1 star 2 stars 3 stars 4 stars 5 stars
comments

Intro Tab

   
Song title:Intro
Artist:Staind
Submitted by:Egg Man
album:14 Shades of Grey

tuned half a step down from low Db,Ab,Db,Gb,Bb,Eb

intro/verse1
[ Tab from: http://www.guitartabs.cc/tabs/s/staind/intro_tab.html ]
Eb---------------------------------------6---6-8-6---6---6---6-5-6-8-
Bb-----5---5--8-7-5-----5---5--8-7-5---6---6-------6---6---6---------
Gb---7---7------------7--7-------------------------------------------
Cb-------------------------------------------------------------------
Ab-------------------------------------------------------------------
Db-------------------------------------------------------------------

chorus/verse2

Eb-----------
Bb-----------
Gb-----------
Cb-0--8------
Ab-0--8------
Db-0--8------



on the ending just strum the strings once then just hammer on and off



Comments