Staind - How About You Chords & Tabs

 

How About You Chords & Tabs

Staind Chords & Tabs

Version: 1 Type: Tab 0 ratings
1 star 2 stars 3 stars 4 stars 5 stars
comments

How About You Tab

   
Staind - How About You
Album: 14 Shades of Grey
Drop D Tuning (Down a Half Step)
    (C# G# C# F# A# D#)

Verse
E---------------------]
B---------------------]
G-7----9----6----7----]
D-7----9----6----7----]
A-5----7----4----5----]
D---------------------]
[ Tab from: http://www.guitartabs.cc/tabs/s/staind/how_about_you_tab.html ]
Pre Chorus
E-----------]
B-----------]
G------7----]
D-4----7----]
A-4----5----]
D-4---------]

Chorus
E---------------------]
B---------------------]
G---------------------]
D-7----2----4----0----]
A-7----2----4----0----]
D-7----2----4----0----]

Positive comments or help with the transcription can be sent to retailgtrs18@aol.com or
ibanez_rokker84@hotmail.com.
Comments