Staind - Home Chords & Tabs

 

Home Chords & Tabs

Staind Chords & Tabs

Version: 6 Type: Tab 0 ratings
1 star 2 stars 3 stars 4 stars 5 stars
comments

Home Tab

Name: Joe Morehead

Tabs: Titlte:Home
Band:Staind


Tuning:whatever

play 3 times
guitar1
--2h3p2----------------------------------------------------------
--0--------------------------------------------------------------
--0--------11--11---------0--------------------------------------
-----------9---9h10-------0--12------------10h12-----12----------
-----------9---9----------0--12------12----10--------10----------
-----------------------------10------10--------------------------

--------------------------------
--------------------------------
---9----------------------------
---9h10-------------------------
---9---------10p9---------------
-----------------------10--9--0-

-----------------------------------8-------6-
---------------------------------------0-----
---0-----0-----3-----------------------------
---0-----0--------2---(2)--------------------
---0-----0-----------------------------------
---------------------------------------------
[ Tab from: http://www.guitartabs.cc/tabs/s/staind/home_tab_ver_6.html ]
-----------------------------------------------------------------
--14------12--14--(14)---12--------14------12--14--(14)---12-----
------12-------------------------------12------------------------
------------------------------13-------------------------------12
-----------------------------------------------------------------
-----------------------------------------------------------------
guitar2
--------------------------0-(0)-  -----    --------------5-
---3----(3)----3--(3)-----3-(3)-  --3--    --------------5-
---2----(2)----0--(0)-----0-(0)-  --0--x12 --------------5-
---0----(0)----0--(0)-----------  --0--    ---0------------
---0----(0)----2--(2)-----------  --1--    ---0------------
---0----(0)---------------------  -----    ---0------------
                                           play this and then go 
                                           back to the beginning 
                                           of where guitar2 comes
                                           in.

chorus  guitar1 heavy dist.

-----------------------------------------------------------------
----7----7----7-7------7--7-----4-(4)--------4^-(4)(4)p0---------
----7----7----7-7------7--7-----4-(4)--------4--(4)(4)p0---------
----5----5----5-5------0--0-----2-(2)----------------------------
----5----5----5-5------0--0-----2-(2)----2-----------------------
-----------------------------------------------------------------

-----3--3-3--3-----3--3-----2--2----2----------0-----------------
-----3--3-3--3-----3--3-----3--3----3----------0-----------------
-----0--0-0--0-----0--0-----2--2----2----------4play 10 times----
-----0--0-0--0-----0--0-----0--0----0---0--0---4-----------------
----------------------------0--0----0---0--0---2-----------------
-----5--5-5--5-----5--5-----0--0----0---0--0---2-----------------
                                                  you just play 
                                                  the last chord
                                                  ten times not
                                                  the whole bar.

Bridge  guitar1

-----------------------------------------------------------------
-----------------0-------------------------------0---------------
-------------4-------4-----------------------4-------------------
---------0---------------0---------------0-----------------------
-----0-----------------------0-------0---------------------------
-3-------------------------------3-------------------------------



Comments