Staind - Home Chords & Tabs

 

Home Chords & Tabs

Staind Chords & Tabs

Version: 3 Type: Tab 0 ratings
1 star 2 stars 3 stars 4 stars 5 stars
comments

Home Tab

"Home" by Staind
tabbed by Jeph



INTRO (I know the high part sounds bad but its supposed to)

|-----------------------|-then on the last time it goes: 
|4---4-4-4--------------|--------------|
|4---4-4-4--------------|--------------|
|2---2-2-2---4---4-4-4--|-666-543~~~/6-| 
|------------4---4-4-4--|-666-543~~~/6-|
|------------2---2-2-2--|-444-321~~~/4-|


VERSE 1 (listen to the CD to get the timings)

|---------------|
|---------------|
|2----2----2----|
|--0----0----0--|
|---------------|
|---------------|

[ Tab from: http://www.guitartabs.cc/tabs/s/staind/home_tab_ver_3.html ]
CHORES (I like to go down at the end cause it sounds better, 
                      but it don't on the CD)

|------------------------------|
|------------------------------|
|-3--3333----------------------|
|-3--3333-3--3-36--66663--3-33-|
|-5--5555-3--3-36--66663--3-33-|
|---------5--5-54--44441--1-11-|

After a few verses, it goes to this

|-------------44--|
|---3~~33--3~~----|
|--2------2-------|
|-0------0--------|
|-----------------|
|-----------------|

Then after it does that a few times it goes to this

|----------|
|----------|
|----------|
|4-4---4-4-|
|4-4---4-4-|
|2-2---2-2-|

After that it goes to the chores and then the outro is
just the chores strummed real lightly.
Comments