Staind - Home Chords & Tabs

 

Home Chords & Tabs

Staind Chords & Tabs

Version: 2 Type: Tab 0 ratings
1 star 2 stars 3 stars 4 stars 5 stars
comments

Home Tab

   
Home by stained
Staind's guitarist tunes his 6 string guitar like a seven string
low to high(Ab Eb Ab Db Gb Bb) but i play it in dropped Db it sounds 
pretty close

intro
Eb|----------------------
Bb|0--0--0---------------
Gb|11/12/11--------------
Db|--------9-10-9-x-5-3-5
Ab|--------9-10-9-x-5-3-5
Db|--------9-10-9-x-5-3-5
[ Tab from: http://www.guitartabs.cc/tabs/s/staind/home_tab_ver_2.html ]
do that 4 times 
Verse
Just play some stuff in the penatonic scale(if you know wat that is)
Repeating riff
Eb|5-5-5-
Bb|-8-8-8

Chorus
Db|55-55-00000-555^5
Ab|55-55-00000-333^3
Db|55-55-00000-333^3
Repeat 4 times

Interlude
Gb|----0------
Db|--4---4----
Ab|-5------5--
Db|0---------0
repeat im sure how many times
then
Db|55x3-000
Ab|33x3-000
Db|55x5-000
repeat i think 6 times
then do the chorus 2 more times, the second time with no distortion

Comments