Staind - Home Chords & Tabs

 

Home Chords & Tabs

Staind Chords & Tabs

Version: 1 Type: Tab 0 ratings
1 star 2 stars 3 stars 4 stars 5 stars
comments

Home Tab

"Home"
By Staind

Not an exact tab, but close enough to get you started.  The other 
version i just couldn't play without screwing up, so i found an easier
version and tabbed it.  Good luck on it.

Dropped D Tuning

intro
e----------------------------|
B----------------------------|
G---7\6--------------5\4-----|
D---7\6----6/7--5----5\4-----|
A---5\4--0-4/5--3--0-3\2-----|
D--------0-4/5--3--0---------|

end intro
|----------------------------|
|----------------------------|
|----------------------------|
|---9-10-9-10------2---------|
|---9-10-9-10------0---------|
|---9-10-9-10--3-2-0---------|

[ Tab from: http://www.guitartabs.cc/tabs/s/staind/home_tab.html ]
verse
|------------------------------------------------|
|------------------------------------------------|
|------------------------------------------------|
|-------------------0--7--5-7-5-----7--5-7-5-----|
|---0----5--5/7-8------5-------------------------|
|---0-------------9----5---------5---------------|

chorus
|------------------------------------------------|
|------------------------------------------------|
|------------------------------------------------|
|---7---7--7-7---0-0---0--4---4--4-4--4-4--4-----|
|---5---5--5-5---0-0---0--2---2--2-2--2-2--2-----|
|---5---5--5-5---0-0---0--2---2--2-2--2-2--2-----|

song structure
intro 3x
end intro 1x
verse 4x
chorus 4x (slide up at end)
verse 4x
chorus 4x
bridge (sorry, i don't know it.  But you can figure it out)
chorus 4x
chorus (strummed slowly)
end of song

That's it.  With what i've given you, the bridge shouldn't be too hard.
Good luck.  Send any questions, complaints, or comments to 
staind_d@hotmail.com(i'm a really big Staind fan, in case you haven't
noticed).

Comments