Staind - Fray Chords & Tabs

 

Fray Chords & Tabs

Staind Chords & Tabs

Version: 1 Type: Tab 0 ratings
1 star 2 stars 3 stars 4 stars 5 stars
comments

Fray Tab

Intro:
   Gtr. I
Bb|------------------------------------------------------------------------|
Gb|------------------------------------------------------------------------|
Db|--4~~~---/9-----9---(9)-7---9---/12---\9~~-----/12---\9------(/12)------|
Ab|--x-------x-----x---(x)-x---x-----x----x---------x----x--------(x)------|
Db|--4~~~---/9-----9---(9)-7---9---/12---\9~~-----/12---\9------(/12)------|
Ab|------------------------------------------------------------------------|

Bb|------------------------------------------------------------------------|
Gb|------------------------------------------------------------------------|
Db|--2~~--2h4~~~~~---4---2h4-----4-----7----7/9-----9------7/9-----9----2--|
Ab|--x----x-x--------x---x-x-----x-----x----x-x-----x------x-x-----x----x--|
Db|--2~~--2h4~~~~~---4---2h4-----4-----7----7/9-----9------7/9-----9----2--|
Ab|------------------------------------------------------------------------|


   Verse One:
   Gtr. I
Bb|-----------------------------------------------|
Gb|-----------------------------------------------|
Db|-------12--------12----11----11--------11------|
Ab|----------9(9)------9---9-------9---------9----|
Db|--9---------9-----------9---------9---------9--|
Ab|-----------------------------------------------|


   Chorus:
   Gtr. II
Bb|------------------------------------------------------------------|
Gb|------------------------------------------------------------------|
Db|--9--------------------7------------------------------------------|
Ab|--9--------------------7---------(7)------------------(5)---------|
Db|--9--------------------7----------9--------------------7----------|
Ab|----------------------------------7--------------------5----------|
  |								     |   Play
  |Gtr. III							     |   Twice
Bb|------------------------------------------------------------------|
Gb|-11------11------------9---7---6--4-------------------(2)---------|
Db|--x-------x------------x---x---x--x-------------------(x)---------|
Ab|--9-------9------------7---5---4--2-------------------(0)---------|
Db|------------------------------------------------------------------|
Ab|------------------------------------------------------------------|
[ Tab from: http://www.guitartabs.cc/tabs/s/staind/fray_tab.html ]
   Gtr. II
Bb|------------------------------------------------------------------|
Gb|------------------------------------------------------------------|
Db|--9--------------------7------------------------------------------|
Ab|--9--------------------7---------(7)------------------(5)---------|
Db|--9--------------------7----------9--------------------7----------|
Ab|----------------------------------7--------------------5----------|
  |								     |
  |Gtr. III							     |
Bb|------------------------------------------------------------------|
Gb|-11------11-----------19--17--21-21-23---19-----------------------|
Db|--x-------x------------x---x---x--x--x----x-----------------------|
Ab|--9-------9-----------17--15--19-19-21---17-----------------------|
Db|------------------------------------------------------------------|
Ab|------------------------------------------------------------------|

   Gtr. II
Bb|------------------------------------------------------------------|
Gb|------------------------------------------------------------------|
Db|--9--------------------7------------------------------------------|
Ab|--9--------------------7---------(7)------------------(5)---------|
Db|--9--------------------7----------9--------------------7----------|
Ab|----------------------------------7--------------------5----------|
  |								     |   
  |Gtr. III							     |   
Bb|------------------------------------------------------------------|
Gb|-11------11------------9---7---6--4-------------------(2)---------|
Db|--x-------x------------x---x---x--x-------------------(x)---------|
Ab|--9-------9------------7---5---4--2-------------------(0)---------|
Db|------------------------------------------------------------------|
Ab|------------------------------------------------------------------|


   Post Chorus Guitar Solo:
   Gtr. IV
Bb|------------------------------------------------------------------------|
Gb|------------------------------------------------------------------------|
Db|--\9~~~----7p5h7--5\2----/4-------/4------------------------------------|
Ab|-------------------------------------------7-----5-4-2----/5----\2---0--|
Db|------------------------------------------------------------------------|
Ab|------------------------------------------------------------------------|


   Bridge:
   Gtr. II
Bb|------------------------------------------------------------------------|
Gb|------------------------------------------------------------------------|
Db|------------------------------------------------------------------------|
Ab|-(5)---------(2)------------------(3)---------(0)-----------------------|
Db|--7-----------4--------------------5-----------2------------------------|
Ab|--5-----------2--------------------3-----------0------------------------|
  |									   |
  |Gtr. III								   |
Bb|------15-14--12-------------------13----------10------------------------|
Gb|-------x--x---x--------------------x-----------x------------------------|
Db|------12-11---9-------------------10-----------7------------------------|
Ab|------------------------------------------------------------------------|
Db|------------------------------------------------------------------------|
Ab|------------------------------------------------------------------------|
Comments