Staind - Four Walls Chords & Tabs

 

Four Walls Chords & Tabs

Staind Chords & Tabs

Version: 1 Type: Tab 0 ratings
1 star 2 stars 3 stars 4 stars 5 stars
comments

Four Walls Tab


Song : Four Walls		
Artist : Staind	
Album : Break The Cycle
Tabed By : Kevin Terry

This is my first time tabbing so if its wrong thats why.



****NOTE! : all notes in { } are played by Guitar 2( or a bass guitar? i found that playing it with a normal 6 string sounds great and let them ring!)****



              intro/verse
                                    **End 1**
e------------------------------|---------------------
b------------------------------|---------------------
g------------------------------|---------------------
d----------8p7---------4-------|---------------------
a---------------4h5p4-----4h5--|----6p5--------------
E---{2}------------------------|---{3}---5-----------


[ Tab from: http://www.guitartabs.cc/tabs/s/staind/four_walls_tab.html ]
                                     **End 2**
e------------------------------|---------------------
b------------------------------|---------------------
g------------------------------|---------------------
d----------8p7---------4-------|---------5-----------
a---------------4h5p4-----4h5--|----5h6--------------
E---{2}------------------------|---{3}---------------


****NOTE! : interchange endings****




             chorus
e---------------------------------------------------
b---------------------------------------------------
g---------------------------------------------------
d----9-----9--9--7----------------------------------
a----9-----9--9--7----------------------------------
E----7-----7--7--5----------------------------------


if u have any questions e-mail me at skillzz280@stny.rr.com
thanx!

-kevin








Comments