Staind - For You Chords & Tabs

 

For You Chords & Tabs

Staind Chords & Tabs

Version: 8 Type: Tab 0 ratings
1 star 2 stars 3 stars 4 stars 5 stars
comments

For You Tab

Song - For you 
Artist - Staind 
Album - Break the cycle 
Tabbed by Tom Kelly 
tuning is down half a step with dropped d 

intro/verse 
eb|---------------------------------------------- 
Bb|---------------------------------------------- 
Gb|---------------------------------------------- 
Db|---2^4--X-X--2^4--X--2^4--X-X-X--2^4---------- 
Ab|---2^4--X-X--2^4--X--2^4--X-X-X--2^4---------- 
Db|---2^4--X-X--2^4--X--2^4--X-X-X--2^4---------- 

eb|---------------------------------------------- 
Bb|---------------------------------------------- 
Gb|---------------------------------------------- 
Db|---2^4--X-X--2^4--X--2^4--X-X-X--4^2---------- 
Ab|---2^4--X-X--2^4--X--2^4--X-X-X--4^2---------- 
Db|---2^4--X-X--2^4--X--2^4--X-X-X--4^2---------- 
]
chorus 
eb|---------------------------------------------- 
Bb|------7---------10-----9---------------------- 
Gb|-----------9---------------------------------- 
Db|----------------------------------------------
Ab|----------------------------------------------
Eb|----------------------------------------------
[ Tab from: http://www.guitartabs.cc/tabs/s/staind/for_you_tab_ver_8.html ]
i think the second guitar in the chorus plays something like this... 
eb|------------------------------------------------ 
Bb|------------------------------------------------ 
Gb|------------------------------------------------
Db|---4-4-4---2-2-2---7-7-7---6-6-6----------------
Ab|---4-4-4---2-2-2---7-7-7---6-6-6---------------- 
Eb|---4-4-4---2-2-2---7-7-7---7-7-7----------------

bridge (anything inside [ ] has a palm mute) 
eb|----------------------------------- 
Bb|----------------------------------- 
Gb|-----------------------------------
Db|---[4--4--4--4--4-4]--------------- 
Ab|---[4--4--4--4--4-4]--repeat X 6--- 
Eb|---[4--4--4--4--4-4]--------------- 

eb|-------------------------- 
Bb|-------------------------- 
Gb|-------------------------- 
Db|--4--[4--4--4--4-4]------- 
Ab|--4--[4--4--4--4-4]------- 
Eb|--4--[4--4--4--4-4]------- 

eb|------------------------------ 
Bb|------------------------------ 
Gb|------------------------------ 
Db|---4--4--4--2--4--2----------- 
Ab|---4--4--4--2--4--2----------- 
Eb|---4--4--4--2--4--2----------- 
Comments