Staind - For You Chords & Tabs

 

For You Chords & Tabs

Staind Chords & Tabs

Version: 5 Type: Tab 0 ratings
1 star 2 stars 3 stars 4 stars 5 stars
comments

For You Tab

Staind
For You
Intro and riff
[ Tab from: http://www.guitartabs.cc/tabs/s/staind/for_you_tab_ver_5.html ]
--------------------------------------------------------------------------------
--------------------------------------------------------------------------------
--------------------------------------------------------------------------------
--------------------------------------------------------------------------------
---2----4----4----4----2----4----4----2----4----4----4----4----2----4----4----4-
---0----2----2----2----0----2----2----0----2----2----2----2----0----2----2----2-



--------------------------------------------------------------------------------
--------------------------------------------------------------------------------
--------------------------------------------------------------------------------
--------------------------------------------------------------------------------
---2----4----4----4----2----4----4----2----4----4----4----4----5----4----4----4-
---0----2----2----2----0----2----2----0----2----2----2----2----3----2----2----2-
Comments