Staind - For You Chords & Tabs

 

For You Chords & Tabs

Staind Chords & Tabs

Version: 4 Type: Tab 0 ratings
1 star 2 stars 3 stars 4 stars 5 stars
comments

For You Tab

   
Title: For You
Artist: Staind
Album: Break The Cycle
Date: 4/3/02
Note: I know for a fact that this tab is 100% correct
Email staind-fan@attbi.com for any questions or comments. I know the entire "Break the Cycle" CD
100% correct, I can submit other songs if enough requests are made
h=Hammer-On
p=Pull-Off

Intro/Verse 1, Played 5x, singing starts after first time
Bb  |------------------------------------------------------------------------------------------------------------------------------
Gb  |------------------------------------------------------------------------------------------------------------------------------
Db  |------------------------------------------------------------------------------------------------------------------------------
Bb  |------------------------------------------------------------------------------------------------------------------------------
Eb  |-----7--h--9-----9-----9-----7--h--9-----9-----7--h--9-----9-----9-----9-----7--h--9-----9-----9------------------------------
Ab  |-----7--h--9-----9-----9-----7--h--9-----9-----7--h--9-----9-----9-----9-----7--h--9-----9-----9------------------------------


Bb  |------------------------------------------------------------------------------------------------------------------------------
Gb  |------------------------------------------------------------------------------------------------------------------------------
Db  |------------------------------------------------------------------------------------------------------------------------------
Bb  |------------------------------------------------------------------------------------------------------------------------------
Eb  |-----7--h--9-----9-----9-----7--h--9-----9-----7--h--9-----9-----9-----9-----10--p--9-----------7-----------------------------
Ab  |-----7--h--9-----9-----9-----7--h--9-----9-----7--h--9-----9-----9-----9-----10--p--9-----9-----7-----------------------------

Chorus
Bb  |------------------------------------------------------10-----10-----10-----9-----9--------------------------------------------
Gb  |-11-----11-----11-----11--p--9-----9-----9-----9--------------------------------------9-----9-----11-----11-------------------
Db  |------------------------------------------------------------------------------------------------------------------------------
Bb  |------------------------------------------------------------------------------------------------------------------------------
Eb  |------------------------------------------------------------------------------------------------------------------------------
Ab  |------------------------------------------------------------------------------------------------------------------------------

Bb  |-----------------------------------------------10-----10-----10-----9-----9---------------------------------------------------
Gb  |-----11-----11--p--9-----9-----9-----9------------------------------------------9-----9-----11-----11-----11-----11--p--9-----
Db  |------------------------------------------------------------------------------------------------------------------------------
Bb  |------------------------------------------------------------------------------------------------------------------------------
Eb  |------------------------------------------------------------------------------------------------------------------------------
Ab  |------------------------------------------------------------------------------------------------------------------------------
[ Tab from: http://www.guitartabs.cc/tabs/s/staind/for_you_tab_ver_4.html ]
Bb  |--------------------------10-----10-----10-----9-----9------------------------------------------------------------------------
Gb  |-----9-----9-----9----------------------------------------9-----9-----11-----11-----11-----9-----9-----9----------------------
Db  |------------------------------------------------------------------------------------------------------------------------------
Bb  |------------------------------------------------------------------------------------------------------------------------------
Eb  |------------------------------------------------------------------------------------------------------------------------------
Ab  |------------------------------------------------------------------------------------------------------------------------------

Bb  |------------10-----10-----10--------------------------------------------------------------------------------------------------
Gb  |-----11--------------------------9--------------------------------------------------------------------------------------------
Db  |------------------------------------------------------------------------------------------------------------------------------
Bb  |------------------------------------------------------------------------------------------------------------------------------
Eb  |------------------------------------------------------------------------------------------------------------------------------
Ab  |------------------------------------------------------------------------------------------------------------------------------

Verse 2: Use the intro, only played 4 times

Bridge, 10x
Bb  |------------------------------------------------------------------------------------------------------------------------------
Gb  |------------------------------------------------------------------------------------------------------------------------------
Db  |------------------------------------------------------------------------------------------------------------------------------
Bb  |------------------------------------------------------------------------------------------------------------------------------
Eb  |-----2-----2-----2-----2-----2-----x-----2-----2-----2-----2------------------------------------------------------------------
Ab  |------------------------------------------------------------------------------------------------------------------------------

You'll hear this during the bridge also
Bb  |------------------------------------------------------------------------------------------------------------------------------
Gb  |------------------------------------------------------------------------------------------------------------------------------
Db  |------------------------------------------------------------------------------------------------------------------------------
Bb  |-----2------------2-------------------2-----2------------2-----2--------------------------------------------------------------
Eb  |-----2------------2-------------------2-----2------------2-----2--------------------------------------------------------------
Ab  |------------------------------------------------------------------------------------------------------------------------------

"Cause im f***ed up", Starts right after f***ed, played 3x, on 4th go to this at the end instead of the normal last 3 chords
Bb  |--------------------------------------------------------------------|---------------------------------------------------------
Gb  |--------------------------------------------------------------------|---------------------------------------------------------
Db  |--------------------------------------------------------------------|---------------------------------------------------------
Bb  |-----2-----0-----2-----0-----2-----0-----0-----2-----0--------------|-----0-----0-----0---------------------------------------
Eb  |-----2-----0-----2-----0-----2-----0-----0-----2-----0--------------|-----0-----0-----0---------------------------------------
Ab  |--------------------------------------------------------------------|---------------------------------------------------------

Then goto Chorus and end on "too fast" like this:
Bb  |------------------------------------------------------------------------------------------------------------------------------
Gb  |------------------------------------------------------------------------------------------------------------------------------
Db  |-----7-----7-----7-----6-----6-----6-----x------------------------------------------------------------------------------------
Bb  |------------------------------------------------------------------------------------------------------------------------------
Eb  |------------------------------------------------------------------------------------------------------------------------------
Ab  |------------------------------------------------------------------------------------------------------------------------------

Play chorus once more, then play the intro twice

Thats it, fairly easy, and 100% correct
Comments