Staind - For You Chords & Tabs

 

For You Chords & Tabs

Staind Chords & Tabs

Version: 3 Type: Tab 0 ratings
1 star 2 stars 3 stars 4 stars 5 stars
comments

For You Tab

   
Hey what's up staind fans?
This is my first tabs hope u like.
questions? Comments? email persona@musician.org

FOR YOU 
by: S T A I N D

tune low string to D
keep in mind you keep repeating riffs till the next timeframe.

^- pull on
X- dead note

Intro/verse riff 
(0:00)
E---------------------------|  |----|
B---------------------------|  |----|
G---------------------------|X2|----|  repeat many times
D-1^3-x-x-1^3-x-1^3-x-x-1^3-|  |-4^3|
A-1-3-x-x-1-3-x-1-3-x-x-1^3-|  |-4-3|
D-1-3-x-x-1-3-x-1-3-x-x-1^3-|  |-4-3|

(0:35)

Guitar 1
I'm not gonna state the strumming it's pretty easy 
to figure out

E---------------------------------------------|
B---------------------------------------------|
G---------------------------------------------|
D-3---11---8--6-------------------------------|
A-3---11---8--6-------------------------------|
D-3---11---8--6-------------------------------|

Guitar 2
In sync with the chords (this can be optional if you want)

E-1--------4---3-----|
B-----4--------------|
G--------------------|
D--------------------|
A--------------------|
D--------------------|
[ Tab from: http://www.guitartabs.cc/tabs/s/staind/for_you_tab_ver_3.html ]
(0:59)
same vrse riff
(I dunno if you hear this but i heard this every time 
Aaron held his word it's optional.)

guitar 2
B--6-6-6| played just like that

(1:22)
Chorus Riff

(1:46)
Bridge 1 riff
you can palm mute the single notes if you want.

guitar 1
E-----------|
B-----------|
G-----------|
D-3-3-3-3-3-|
A-----------|
D-----------|

Bride 2 riff
then at (2:05)
E------------------------------------------------|
B------------------------------------------------|
G------------------------------------------------|
D-3--3-3-3-3-3--3-3-3-3-3-3-3-3-3----------------|
A-3-------------3-3-----------3-3----------------|
D-3-------------3-3-----------3-3----------------|

(2:15)
Bridge 3 riff
E-------------------|
B-------------------|
G-------------------|
D-3-1-3-1---1--3--0-|
A-3-1-3-1---1--3--0-|
D-3-1-3-1---1--3--0-|

(2:27)
Chorus 1 Riff

(2:44)
Chorus 2 Riff

Guitar 1
E-----------|
B-----------|
G-----------|
D-3--11-6--1|
A-3--11-6--1|
D-3--11-6--1|

Guitar 2
E-1---------|
B----4--1---|
G----------3|
D-----------|
A-----------|
D-----------|

(3:14)
Intro Riff

(3:24)
END

That's It, really cool song! 

tabbed by: Jonathan Singh 
            persona@musician.org
Comments