Staind - For You Chords & Tabs

 

For You Chords & Tabs

Staind Chords & Tabs

Version: 13 Type: Tab 0 ratings
1 star 2 stars 3 stars 4 stars 5 stars
comments

For You Tab

   
Transcribed by www.mikesguitarsite.co.uk

Words and Music by Michael Mushok, Aaron Lewis, John April & Jonathan Wysocki


Note all Gtrs tuned down - 
Gtr I (Ab Db Ab Db Gb Bb) - 'Mike Mushok - Baritone arr. for Gtr w/dist'
Gtr II (Db Ab Db Gb Bb Eb) - 'Aaron Lewis - Steel String Avoustic'
Gtr III (Ab Db Ab Db Gb Bb) - 'Mike Mushok - Baritone arr. for Gtr w/dist'
Gtr IV (Ab Db Ab Db Gb Bb) - 'Mike Mushok - Gtr I clean'

Intro
  Q=62
 4/4
  Gtr I
  Q       T  T  E  S  S  E S  E.  S  S  E  S  3x S  S S  S E  S S H
|----||---------------------------------------||-----------------------||
|----||o-------------------------------------o||-----------------------||
|----||--11h12p11-11-11-----------------------||-----------------------||
|----||--10--------9--9h10---12--12-10h12-12--||-9h10p9----------------||
|----||o-----------9--9----0-12--12-10----10-o||-9------10p9-----------||
|----||----------------------10--10-----------||-------------10-9-0----||


   Verse 1
    Q.    S S +Q         S  S  E
||-----------------------8-------|
||o---------------------------10S|
||--0-----------------------0----|
||--------8----------------------|
||o---------9-(9)----------------|
||-------------------------------|
||-Riff A
|
|   Gtr II
|   Q   E S S +S  S S S +E     E
||--------0-----------0-(0)------|
||o---------0-(0)-----0-(0)------|
||------0---------0--------------|
||------------------3----------3-|
||o------------------------------|
||-------------------------------|
 |-Riff A1

   S  S  S  S  +S   S  E  S  S  S  S  +S   S  E  4x
|------------------------------------------------||
|-14----12-14-(14)-12----14----12-14-(14)-12----o||
|----12---------------------12-------------------||
|---------------------13---------------------12--||
|-----------------------------------------------o||
|------------------------------------------------||
|                                     end Riff A-|
|
|  E     S  S  +S   S  E  E     S  S  +S   S  E  4x
|-----------0--(0)-----------------0--(0)--------||
|--------3----------3-----------3----------3----o||
|--0-------------------3--0-------------------2--||
|------------------------------------------------||
|-----------------------------------------------o||
|------------------------------------------------||
                                     end Riff A1-|

   Chorus
                        1.,2.,3.                    4.
    Gtr I
    Q  E S S  S  E. Q    H.      S    +S  +S  S     H.      +Q
||---------------------|-------------------------||---------------||
||o--------------------|------------------------o||---------------||
||--5--5-5-5-----0--0--|-4-------4b5==(4)r(4)p0--||-4-------(4)/--||
||--5--5-5-5-----0--0--|-2-----------------------||-2-------(2)/--||
||o-5--5-5-5-----0--0--|-2----------------------o||-2-------(2)/--||
||---------------------|-------------------------||---------------||
||-Rhy Fig 1                       end Rhy Fig 1-||-Rhy Fill 1  --|
|
|   Gtr III
|   Q  E S S +H          W                          W
||---------------------|-------------------------||---------------||
||o--------------------|------------------------o||---------------||
||--7--7-7-7-(7)-------|-------------------------||---------------||
||---------------------|-------------------------||---------------||
||o--------------------|------------------------o||---------------||
||---------------------|-------------------------||---------------||
 |-Riff B                             end Riff B-|

   Verse 2
   Riff A + A1 both x4
[ Tab from: http://www.guitartabs.cc/tabs/s/staind/for_you_tab_ver_13.html ]
   Chorus
w/Riff C x4
                        1.,2.,3.                    4.
    Gtr I
    Q  E S S  S  E. Q    H.      S    +S  +S  S     W
||---------------------|-------------------------||------||
||o--------------------|------------------------o||------||
||--5--5-5-5-----0--0--|-4-------4b5==(4)r(4)p0--||-4----||
||--5--5-5-5-----0--0--|-2-----------------------||-2----||
||o-5--5-5-5-----0--0--|-2----------------------o||-2----||
||---------------------|-------------------------||------||


   Bridge
    Gtr III
     S  S  S  S  E.      S  +S   S  S  S  Q
||----------------------------------------------|
||o---------------------------------------------|
||--14s12-12s14-12------14-(14)s12-12s14-12-----|
||----------------------------------------------|
||o---------------------------------------------|
||----------------------------------------------|
|
|   Gtr IV
|    S  S  S  S  S  S S  S   S   S  S  S  S S E
||----------------------------------------------|
||o--------------0------------------------0-----|
||------------4-----4------------------4----4---|
||---------5----------5-------------5---------5-|
||o-----0----------------0-------0--------------|
||---3-----------------------3------------------|


 1.,2.,3.
   S  S  S  S  E.      S  +S   S  S  S  Q
|--------------------------------------------||
|-------------------------------------------o||
|-14s12-12s14-12------14-(14)s12-12s14-12----||
|--------------------------------------------||
|-------------------------------------------o||
|--------------------------------------------||
|
|  S  S  S  S  S  S S  S   S   S  S  S  Q
|--------------------------------------------||
|--------------0------------------------2---o||
|-----------4-----4------------------0-------||
|--------5----------5-------------0----------||
|-----0----------------0---0---3------------o||
|--3-----------------------------------------||


  4.
 5/4
                                             G
   S  S  S  S  E.      S  +S   S  S  S  H
|--------------------------------------------|
|--------------------------------------------|
|-14s12-12s14-12------14-(14)s12-12s14-12----|
|--------------------------------------------|
|--------------------------------------------|
|--------------------------------------------|
|
|  S  S  S  S  S  S S  S   S   S  S  S  H
|--------------------------------------------|
|--------------0------------------------2----|
|-----------4-----4------------------0-------|
|--------5----------5-------------0----------|
|-----0----------------0---0---3-------------|
|--3-----------------------------------------|


   4/4
 tr I
          PM       PM|            PM       PM|
    S S S S Q  +E  S S Q    S S S S Q  +E  S S Q     3x
||------------------------|--------------------------||
||o--------------------2--|--------------------2----o||
||---------------------0--|--------------------0-----||
||--5-5-----5--(5)-----0--|-5-5-----5--(5)-----0-----||
||o-5-5-----5--(5)-0-0-3--|-5-5-----5--(5)-0-0-3----o||
||--3-3---3-3--(3)--------|-3-3---3-3--(3)-----------||


   Chorus
   Rhy Fig 1 x2.5 - Rhy Fill 1
   Riff B x3


   Out-Chorus
                              1.,2.                                   3.
    Gtr I
    Q     E S S S E.   Q       H.                  S    +S  +S  S     W
||---------------------------|-------------------------------------||------*|
||o--------------------------|------------------------------------o||------*|
||--5-----5-5-5---0----0-----|-4-------------------4b5==(4)r(4)p0--||-4----*|
||--5-----5-5-5---0----0-----|-2-----------------------------------||-2----*|
||o-5-----5-5-5---0----0-----|-2----------------------------------o||-2----*|
||---------------------------|-------------------------------------||------*|
|
|   Gtr II
|   E S S E S S S E  S E S S   Q   E S S +S  S S S S     S   E        W
||--3-3-3-3-3-3---2--2-2-2-2-|-0---0-0-0-(0)-0-0-0-0-----0---0-----||-0----*|
||o-3-3-3-3-3-3---3--3-3-3-3-|-0---0-0-0-(0)-0-0-0-0-----0---0----o||-0----*|
||--0-0-0-0-0-0---2--2-2-2-2-|-4---4-4-4-(4)-4-4-4-4-----4---4-----||-4----*|
||--0-0-0-0-0-0---0--0-0-0-0-|-4---4-4-4-(4)-4-4-4-4-----4---4-----||-4----*|
||o-x-x-x-x-x-x---0--0-0-0-0-|-2---2-2-2-(2)-2-2-2-2-----2---2----o||-2----*|
||--5-5-5-5-5-5---0--0-0-0-0-|-2---2-2-2-(2)-2-2-2-2-----2---2-----||-2----*|
Comments