Staind - For You Chords & Tabs

 

For You Chords & Tabs

Staind Chords & Tabs

Version: 12 Type: Tab 0 ratings
1 star 2 stars 3 stars 4 stars 5 stars
comments

For You Tab

   
SONG     FOR YOU
ARTIST   STAIND
TAB BY   EAIDDHI(eaiddhi@baganmail.net.mm)
TUNNING  DADGBE(DROP D)

THIS SONG IS 100% CORRECT TAB!

 INTRO
|-------------------------------------------|
|-------------------------------------------|
|-------------------------------------------|
|-------------------------------------------|
|-2h4442h442h44442h4442h4442h442h44445h442--| repeat x 2
|-2h4442h442h44442h4442h4442h442h44445h442--|
     .    .   .     .    .    .   .     .
     
 VERSE 1 ( PLAY AS INTO ) x 4

 CHORUS
|-------------------------------------------------------------|
|-------------------------------------------------------------|
|-------6-----------------6----------------6--------6---------|
|-6-6-7-7-----4--4--6-6-7-7----------6-6-7-7--6-6-7-7---------|
|-4-4-5-5--7--2--2--4-4-5-5--7--7-7--4-4-5-5--4-4-5-5--7--7---|
|-4-4-4-4--7--2--2--4-4-4-4--7--6-6--4-4-4-4--4-4-4-4--7--6---|

  VERSE 2 ( PLAY AS INTRO )x 4
  CHORUS

|-------------------|
|-------------------|
|-------------------|
|-------------------|
|-------------------|   play 6 times
|-4xx4xx4xx4x44x4x--|

|---------|----|----------|----------|
|---------|----|----------|----------|
|---------|----|----------|----------|
|---------|----|----------|----------|
|-4-------|----|-4-4------|-4--------|
|-4-------|----|-4-4------|-4--------|
[ Tab from: http://www.guitartabs.cc/tabs/s/staind/for_you_tab_ver_12.html ]
|----------------------|
|----------------------|
|----------------------|
|----------------------|
|-4-2-4h2-4-x-2.-4-2---|   play 3 times
|-4-2-4h2-4-x-2.-4-2---|

|--------------------------|
|--------------------------|
|--------------------------|
|--------------------------|
|-4-2-4h--2-4-2-2.-2-2-----|
|-4-2-4h--2-4-2-2.-2-2-----|

 CHORUS
|--------------------------------------------------------------|
|--------------------------------------------------------------|
|-------6-----------------6----------------6--------6----------|
|-6-6-7-7-----4--4--6-6-7-7----------6-6-7-7--6-6-7-7----------|
|-4-4-5-5--7--2--2--4-4-5-5--7--7-7--4-4-5-5--4-4-5-5--7--7--7-|
|-4-4-4-4--7--2--2--4-4-4-4--7--6-6--4-4-4-4--4-4-4-4--7--6--6-|

|------------------------------------|
|------------------------------------|
|-------6-----------------6----------|
|-6-6-7-7-----4--4--6-6-7-7----------|
|-4-4-5-5--7--2--2--4-4-5-5--7--7----|
|-4-4-4-4--7--2--2--4-4-4-4--7--6----|

|-------------------------------------------|
|-------------------------------------------|
|-------------------------------------------|
|-------------------------------------------|
|-2h4442h442h44442h4442h4442h442h44445h4X2--| 
|-2h4442h442h44442h4442h4442h442h44445h4X2--|

|--------------------------------------|
|--------------------------------------|
|--------------------------------------|
|--------------------------------------|
|-2h4442h4442h4442h44424h442h44242-----|
|-2h4442h4442h4442h44424h442h44242-----|      FINE.
Comments