Staind - For You Chords & Tabs

 

For You Chords & Tabs

Staind Chords & Tabs

Version: 11 Type: Tab 0 ratings
1 star 2 stars 3 stars 4 stars 5 stars
comments

For You Tab

Hey this song is not Eb down hlaf step tunning,this is standrad tunning
i know that all staind songs are Eb down half step but i tab this song in Standard Tunning
anyway i'm tired on Eb tunning so i decided to tab it on Drop D so hope you like it guyz!

Song:4 U
Band:Staind
Album:Break the Cycle
Tab by:Mathew Alibangbang a.k.a RoCk3r_GuItArIsT

DADGBE
Intro/Verse
|------------------------------------------------------------|
|------------------------------------------------------------|
|------------------------------------------------------------|
|1h3-x-x-1h3-1h3-X-X-1h3-x-x-1h3-x-x-1h3-1h3-x-x-4p3---------|
|1h3-x-x-1h3-1h3-X-X-1h3-x-x-1h3-x-x-1h3-1h3-x-x-4p3---------|
|1h3-x-x-1h3-1h3-X-X-1h3-x-x-1h3-x-x-1h3-1h3-x-x-4p3---------|
[ Tab from: http://www.guitartabs.cc/tabs/s/staind/for_you_tab_ver_11.html ]
Chorus
|-------------------------------------------------------|
|-------------------------------------------------------|
|-10-10-10-10--8-8-8-8---13-13-13-13---12-12-12-12------|
|-10-10-10-10--8-8-8-8---13-13-13-13---12-12-12-12------|
|-8--8--8--8---6-6-6-6---11-11-11-11---10-10-10-10------|
|-------------------------------------------------------|

Bridge
|----------------------|
|----------------------|
|----------------------|
|----------------------|  (i dont know how many times you play this part
|----------------------|    just listen to the song to get the timing)
|-x-x-x-x-x-x-x-x-x----|


|-------------------------------------------------|
|-------------------------------------------------|
|-------------------------------------------------|
|-3-----------3-----------3-3-----------3-3-------|
|-3-----------3-----------3-3-----------3-3-------|
|-3-x-x-x-x-x-3-x-x-x-x-x-3-3-x-x-x-x-x-3-3-------|

|--------------------------|
|--------------------------|
|--------------------------|
|-3-3-3-3-3-3-3-3-3--------|
|-3-3-3-3-3-3-3-3-3--------|
|-3-3-3-3-3-3-3-3-3--------|

Then Chorus and Intro

e-mail me if u have a Q? ok,rock3r_guitarist@yahoo.com
See yah!

Rock RuleZ!!!!!!
Comments