Staind - For You Chords & Tabs

 

For You Chords & Tabs

Staind Chords & Tabs

Version: 1 Type: Bass Tab 0 ratings
1 star 2 stars 3 stars 4 stars 5 stars
comments

For You Bass Tab

Song:For You

Band:Staind

Album:Break The Clycle

Tabber:T4-TURBO

Tune the 4th down  until you match the sound cause im not real good
with tabbing out what the tunning is.
i think its called drop-d and drop-c tunning.
if you who know what its called please comment and tell me.
just tune the 5th string waaaay down because he hits some reaallyy deep
notes in this song.
[ Tab from: http://www.guitartabs.cc/tabs/s/staind/for_you_btab.html ]
main riff:
g:-----------------------------------------------|
d:-----------------------------------------------|
a:-----------------------------------------------|
d:1h4-4-4-4--1h4-4-4--1h4-4-4--1h4-4-4--(5p4-4-4)|
c:-----------------------------------------------|
the ones in parenthesis are played every other time.
Chorus:
g:------------------------------------------|
d:------------------------------------------|
a:------3-0-------3-0-----------------------|
d:5-5-5-------------------------------------|
c:----------7-7-7-----1-1-1//7--7-7--7-7-7-7|

Part Were Guitar Does The Little Delay Thing:
g:------------------------------------------------------------------|
d:------------------------------------------------------------------|
a:------------------------------------------------------------------|
d:5----5----5-5----5-5----5-5-5-5-5--5-5-5-5-5--5-5-5-5-5--5-5-5-5-5|
c:------------------------------------------------------------------|
Comments