Staind - Far Away Chords & Tabs

 

Far Away Chords & Tabs

Staind Chords & Tabs

Version: 1 Type: Tab 0 ratings
1 star 2 stars 3 stars 4 stars 5 stars
comments

Far Away Tab

   
Band- Staind
Song- Far Away

Tuning: Acoustic Guitar half step down (Eb, Ab, Db, Gb, Bb, Eb)
        Electric Guitar (Ab, Db, Ab, Db, Gb, Bb)

Intro & Verses: Electric Guitar picks these notes

bb|-12------------12-13-----------13-15----------------------|
Gb|-----12-12-----------12-12-----------12-12-------14-------|
Db|----------------------------------------------------16----|
Ab|-------------------------------------------------------17-|
Db|----------------------------------------------------------|
Ab|----------------------------------------------------------|

bb|-12------------12-13-----------13-15----------------------|
Gb|-----12-12-----------12-12-----------12-12-------9*--5*---|
Db|--------------------------------------------------------7*|
Ab|----------------------------------------------------------|
Db|----------------------------------------------------------|
Ab|----------------------------------------------------------|


Intro & Verses: Acoustic Guitar downpicks the chords
Em7 - Cadd9 - G - D
 
    Em7   Cadd9 G    D
 
eb|-3-----3-----3----2-------|
Bb|-3-----3-----3----3-------|
Gb|-0-----0-----0----2-------|
Db|-2-----2-----0----0-------|
Ab|-2-----3-----2------------|
Eb|-------------3------------| 


Pre-Chorus("I must be sleeping"): Electric guitar picks these notes
[ Tab from: http://www.guitartabs.cc/tabs/s/staind/far_away_tab.html ]
bb|-13------------13--------------13-------------------------|
Gb|-----12-12--------12-12-----------12-12-------14-14-14----|
Db|----------------------------------------------------------|
Ab|----------------------------------------------------------|
Db|----------------------------------------------------------|
Ab|----------------------------------------------------------|


Chorus: Electric Guitar strums these notes

bb|----------------------------------------------------------|
Gb|----------------------------------------------------------|
Db|----------------------------------------------------------|
Ab|----------------------------------------------------------|
Db|--12---12-12-12-12-/7---7-7-7-7-/9---9-9-9-9-/5---5-5-5-5-|
Ab|--10---10-10-10-10-/5---5-5-5-5-/7---7-7-7-7-/3---3-3-3-3-|


Chorus: Acoustic Guitar strums chords
G - D - Em7 - Cadd9

    G     D     Em7  Cadd9
 
eb|-3-----2-----3----3-------|
Bb|-3-----3-----3----3-------|
Gb|-0-----2-----0----0-------|
Db|-0-----0-----2----2-------|
Ab|-2-----------2----3-------|
Eb|-3------------------------|


Bridge: Electric Guitar strums these notes

bb|----------------------------------------------------------|
Gb|----------------------------------------------------------|
Db|----------------------------------------------------------|
Ab|----------------------------------------------------------|
Db|-5-5-5-5-\7-7-7-7-\9-9-9-9-\12-12-12-12-------------------|
Ab|-3-3-3-3-\5-5-5-5-\7-7-7-7-\10-10-10-10-------------------|


Bridge Acoustic Guitar strums chords
Em7 - ? - G - A7sus4

    Em7   ?     G    A7sus4
 
eb|-3-----3-----3----3-------|
Bb|-3-----3-----3----3-------|
Gb|-0-----0-----0----2-------|
Db|-2-----2-----0----2-------|
Ab|-2-----0-----2------------|
Eb|-------2-----3------------|
Comments