Staind - Falling Chords & Tabs

 

Falling Chords & Tabs

Staind Chords & Tabs

Version: 1 Type: Tab

Falling Tab

Tabbed By Chris! AfterGSullivan@aol.com
If you find any mistakes,  fix them!
Standard tuning sounds fine.
This sounds pretty damn close to me >.<
May not be perfect however.
This is the time i've tabbed something!
Hope you like it!

Starts out with some vibrato
|----------------------------------------------------|
|----------------------------------------------------|
|-----6~~~~~~~~~~~~~~~~~~~~~~~~~~~~~~~~~~~~~~~~~~~~~~|
|----------------------------------------------------|
|----------------------------------------------------|
|----------------------------------------------------|

       PM-|       PM--|         
|----------------------------------------------------|
|----------------------------------------------------|
|----------------------------------------------------|
|--2-4--2-2--2-4--2-2-2--5-5-5-5--4-4-4-4------------|
|--2-4--2-2--2-4--2-2-2--5-5-5-5--4-4-4-4------------|
|--2-4--2-2--2-4--2-2-2--3-3-3-3--2-2-2-2------------|x8

Verse
|----------------------------------------------------|
|----------------------------------------------------|
|----------------------------------------------------|
|----------------------------------------------------|
|--2-4-------------2-4--------2----------------------|
|------5-4-5-4-7-4----5-4-5-4------------------------|x2

|----------------------------------------------------|
|----------------------------------------------------|
|--6--------------6----------6------------6----------|
|--6--4--7p6-4s2--6-4-7p6-6--6-4-7p6-4s2--6-4-7p6----|
|-----4-------------4----------4------------4-----7-4|
|----------------------------------------------------|
 
        PM-|      PM--|    
|----------------------------------------------------|
|----------------------------------------------------|
|----------------------------------------------------|
|--2-4--2-2--2-4--2-2-2--5-5-5-5--4-4-4-4------------|
|--2-4--2-2--2-4--2-2-2--5-5-5-5--4-4-4-4------------|
|--2-4--2-2--2-4--2-2-2--3-3-3-3--2-2-2-2------------|x4


Chorus - listen for strumming.1st chorus let last chord ring out.
|---------------------------------------------------------6--|
|---------------------------------------------------------6--|
|---------------6-6-6-----------------------6-6-6---------6--|
|-7-7-7--4-4-4--6-6-6--6-6-6--7-7-7--4-4-4--6-6-6--6-6-6--6--|
|-7-7-7--4-4-4--4-4-4--6-6-6--7-7-7--4-4-4--4-4-4--6-6-6--4--|
|-5-5-5--2-2-2--4-4-4--4-4-4--5-5-5--2-2-2--4-4-4--4-4-4--4--|

|----------------------------------------------------|
|----------------------------------------------------|
|----------------------------------------------------|
|----------------------------------------------------|
|--2-4-------------2-4--------2----------------------|
|------5-4-5-4-7-4----5-4-5-4------------------------|x2

|----------------------------------------------------|
|----------------------------------------------------|
|--6--------------6----------6------------6----------|
|--6--4--7p6-4s2--6-4-7p6-6--6-4-7p6 4s2--6-4-7p6----|
|-----4-------------4----------4------------4-----7-4|
|----------------------------------------------------|
       PM-|       PM--|    
|----------------------------------------------------|
|----------------------------------------------------|
|----------------------------------------------------|
|--2-4--2-2--2-4--2-2-2--5-5-5-5--4-4-4-4------------|
|--2-4--2-2--2-4--2-2-2--5-5-5-5--4-4-4-4------------|
|--2-4--2-2--2-4--2-2-2--3-3-3-3--2-2-2-2------------|x4

|------------------------------------------------------------|
|------------------------------------------------------------|
|---------------6-6-6-----------------------6-6-6------------|
|-7-7-7--4-4-4--6-6-6--6-6-6--7-7-7--4-4-4--6-6-6--6-6-6-----|
|-7-7-7--4-4-4--4-4-4--6-6-6--7-7-7--4-4-4--4-4-4--6-6-6-----|
|-5-5-5--2-2-2--4-4-4--4-4-4--5-5-5--2-2-2--4-4-4--4-4-4-----|

Solo - listen to the song for this part,  the Palm muting is pretty tough to get down.
[ Tab from: http://www.guitartabs.cc/tabs/s/staind/falling_tab.html ]
  PM----|     PM--------|    PM-|
|-----------------------------------------------------|
|-----------------------------------------------------|
|-6-6-6-6--6--6-6-6-6-6-6--6--6-6--6------------------|
|-6-6-6-6--6--6-6-6-6-6-6--6--6-6--6------------------|
|-4-4-4-4--4--4-4-4-4-4-4--4--4-4--4------------------|
|-4-4-4-4--4--4-4-4-4-4-4--4--4-4--4------------------|x2

|-----------------------------------------------------|
|-----------------------------------------------------|
|-13---------13---------14----------------------------|
|---14-13-14---14-13-14----14-13-14--11-14-13-14------|
|-----------------------------------------------------|
|-----------------------------------------------------|

|-----------------------------------------------------|
|-----------------------------------------------------|
|-13--------14----------------------------------------|
|---14-13-14--14-13-14--11-14-13-14----14-13-14-------|
|-----------------------------------14----------------|
|-----------------------------------------------------|

  PM----|     PM---------|    PM-|
|-----------------------------------------------------|
|-----------------------------------------------------|
|-6-6-6-6--6--6-6-6-6-6-6--6--6-6--6------------------|
|-6-6-6-6--6--6-6-6-6-6-6--6--6-6--6------------------|
|-4-4-4-4--4--4-4-4-4-4-4--4--4-4--4------------------|
|-4-4-4-4--4--4-4-4-4-4-4--4--4-4--4------------------|x2

|-----------------------------------------------------|
|-----------------------------------------------------|
|-13---------14---------13----------------------------|
|---14-13-14---14-13-14----14-13-14--11-14-13-14------|
|-----------------------------------------------------|
|-----------------------------------------------------|

|-----------------------------------------------------|
|-----------------------------------------------------|
|-13--------14----------------------------------------|
|---14-13-14--14-13-14--11-14-13-14----14-13-14-------|
|-----------------------------------14----------------|
|-----------------------------------------------------|

  PM----|     PM---------|    PM-|
|-----------------------------------------------------|
|-----------------------------------------------------|
|-6-6-6-6--6--6-6-6-6-6-6--6--6-6--6------------------|
|-6-6-6-6--6--6-6-6-6-6-6--6--6-6--6------------------|
|-4-4-4-4--4--4-4-4-4-4-4--4--4-4--4------------------|
|-4-4-4-4--4--4-4-4-4-4-4--4--4-4--4------------------|x2

the 14^ is just with every pick,  bend more until you get to the 
sound of the 16th fret.
|--------------------------------------------------------------------|
|--------------------------------------------------------------------|
|--13--13--14--13--------13--14--13-------13--14--13--14^14^14^14^16-|
|----14--14--14--14-11-14--14--14--14---14--14--14--14---------------|
|-------------------------------------14-----------------------------|
|--------------------------------------------------------------------|


 PM----|     PM---------|    PM-|
|-----------------------------------------------------|
|-----------------------------------------------------|
|-6-6-6-6--6--6-6-6-6-6-6--6--6-6--6------------------|
|-6-6-6-6--6--6-6-6-6-6-6--6--6-6--6------------------|
|-4-4-4-4--4--4-4-4-4-4-4--4--4-4--4------------------|
|-4-4-4-4--4--4-4-4-4-4-4--4--4-4--4------------------|x2


|-----------------------------------------------------------|
|-----------------------------------------------------------|
|---------------6-6-6-----------------------6-6-6-----------|
|-7-7-7--4-4-4--6-6-6--6-6-6--7-7-7--4-4-4--6-6-6--6-6-6----|
|-7-7-7--4-4-4--4-4-4--6-6-6--7-7-7--4-4-4--4-4-4--6-6-6----|
|-5-5-5--2-2-2--4-4-4--4-4-4--5-5-5--2-2-2--4-4-4--4-4-4----|x2

      PM-|       PM--|    
|----------------------------------------------------|
|----------------------------------------------------|
|----------------------------------------------------|
|--2-4--2-2--2-4--2-2-2--5-5-5-5--4-4----------------|
|--2-4--2-2--2-4--2-2-2--5-5-5-5--4-4----------------|
|--2-4--2-2--2-4--2-2-2--3-3-3-3--2-2----------------|x4

That's about it!  there are a few notes he plays during the chorus...
not sure what they are though =)
Play with it see if you can figure it out!
Hope you enjoy this tab!