Staind - Falling Down Chords & Tabs

 

Falling Down Chords & Tabs

Staind Chords & Tabs

Version: 1 Type: Tab 0 ratings
1 star 2 stars 3 stars 4 stars 5 stars
comments

Falling Down Tab

   
Band- Staind
Song- Falling Down

Gtr. I     Mike Mushok Slighty Distorted
Gtr. II    Mike Mushok Distorted
Gtr. III   Mike Mushok Distorted (Lead)
Gtr. IV    Mike Mushok Clean w/ Phase Shifting Effect


Intro:
   Gtr. I
Bb|---------------------------------------------|-----------------------------------|
Gb|------------------------7------4------4------|-------------------------7------9--|
Db|--5-----5------5-5-5-5--5--(5)-5--(5)-5-(5)--|-11-----11--11-11-11-11-12-----14--|
Ab|--5-----5------5-5-5-5--5--(5)-5--(5)-5-(5)--|--9------9---9--9--9--9--9--(9)-9--|
Db|--5-----5------5-5-5-5--5--(5)-5--(5)-5-(5)--|--9------9---9--9--9--9--9--(9)-9--|
Ab|---------------------------------------------|-----------------------------------|


   Verses:
   Gtr. II
Bb|-------------------------------(0)----(0)-----|
Gb|-------------------------7------4------4------|
Db|--5------5------5-5-5-5--5--(5)-5--(5)-5-(5)--|
Ab|--5------5------5-5-5-5--5--(5)-5--(5)-5-(5)--|
Db|--5------5------5-5-5-5--5--(5)-5--(5)-5-(5)--|
Ab|----------------------------------------------|
[ Tab from: http://www.guitartabs.cc/tabs/s/staind/falling_down_tab.html ]
Bb|---------------------------------------------|
Gb|---------------------------------------------|
Db|-11-----11--11-11-11-11-12-----14-----14-----|
Ab|--9------9---9--9--9--9--9--(9)-9--(9)-9-(9)-|
Db|--9------9---9--9--9--9--9--(9)-9--(9)-9-(9)-|
Ab|---------------------------------------------|
   Chorus:
   Gtr. II
Bb|-----------------------------------------------------------------|
Gb|-----------------------------------------------------------------|
Db|--2--------------------------------------------------------------|
Ab|--2-------------------(3)------------------(0)-------------------|
Db|--2--------------------5--------------------2--------------------|
Ab|-----------------------3--------------------0--------------------|

  |     |
  |Gtr. III     |
Bb|--7--------------------5-----------------------------------------|
Gb|--x----------7---------x----------4---------2--------------------|
Db|--4----------x---------2----------x---------x--------------------|
Ab|-------------5--------------------2---------0--------------------|
Db|-----------------------------------------------------------------|
Ab|-----------------------------------------------------------------|



   Bridge A:
   Gtr. IV
Bb|-----------------------------------------------------------------|
Gb|---------4---------------4-------------9-------------------------|
Db|-----------5---------------5-------------10----------7-----------|
Ab|----2---------------2-------------7-------------5------5---------|
Db|--2---2-----------2---2---------7---7---------5---5--------------|
Ab|-----------------------------------------------------------------|


   Bridge B:
   Gtr. II
Bb|------------------------------------------------------------------------------|
Gb|--------------4p0----------------4p0----------------4p0----------------4p0----|
Db|--2--xxx-2--------0--2--xxx-2--------0--5--xxx-5--------0--5--xxx-5--------0--|
Ab|--2--xxx-2-----------2--xxx-2-----------5--xxx-5-----------5--xxx-5-----------|
Db|--2--xxx-2-----------2--xxx-2-----------5--xxx-5-----------5--xxx-5-----------|
Ab|------------------------------------------------------------------------------|
Comments