Staind - Fade Chords & Tabs

 

Fade Chords & Tabs

Staind Chords & Tabs

Version: 7 Type: Tab 0 ratings
1 star 2 stars 3 stars 4 stars 5 stars
comments

Fade Tab

   
"Fade" - Staind

Transcribed by www.mikesguitarsite.co.uk


Words and Music by Michael Mushok, Aaron Lewis, John April & Jonathan Wysocki

Gtr I, II, III, IV (Eb Ab Db Gb Bb Eb) - 'Michael Mushok - Barritone gtr arr. w/dist' 

Intro
  Q=58
 4/4
  Gtrs I, II
  <          <          <          <
  W          W          W          W
|----------|----------|----------|------|
|-0--------|-0--------|-0--------|-0----|
|-0--------|-0--------|-0--------|-0----|
|-2--------|-2--------|-2--------|-2----|
|-2--------|-2--------|-2--------|-2----|
|-0--------|-0--------|-0--------|-0----|


  Gtr III
   S  E  S  S  E  S  S  S  S  S  S S S  T  T
|--------------------------------------------|
|--------------------------------------------|
|-11s12-12-12s14-14-14s12-12s11-11s9-9-11-11-|
|--x-----x--x-----x--x-----x-----x---x--x--x-|
|--9s10-10-10s12-12-12s10-10s=9--9s7-7--9--9-|
|--------------------------------------------|
|
| Gtr II
|  S  E  S  S  E  S  S  E     S  S E    S
|--------------------------------------------|
|--------------------------------------------|
|--------------------------------------------|
|--------------------------------------------|
|--5--7--7--7--7--7--7--5-----5--3-5---------|
|--5--7--7--7--5--5--5--5-----5--3-5----5----|
|-Rhy Fig 1

   S  E  S  S  S  S  S  S  S  S  S  S  S  S  S
|-----------------------------------------------|
|-----------------------------------------------|
|-11s12-12-12s14-14-14-14s12-12s16-16s14-14s11--|
|--x--------x-----x--x--x-----x-----x-----x-----|
|--9s10-10-10s12-12-12-12s10-10s14-14s12-12s=9--|
|-----------------------------------------------|
|
|  S  E  S  S  S  S  S  S  E     S  S  E     S
|-----------------------------------------------|
|-----------------------------------------------|
|-----------------------------------------------|
|-----------------------------------------------|
|--5h=7--7--7--7--7--7--7--5-----5--3--5--------|
|--5h=7--7--7--5--5--5--5--5-----5--3--5-----5--|
                                  end Rhy Fig 1-|

w/Rhy Fig 1
   S  E  S  S  E  S  S  S  S  S  S S S  T  T
|--------------------------------------------|
|--------------------------------------------|
|-11s12-12-12s14-14-14s12-12s11-11s9-9-11-11-|
|--x-----x--x-----x--x-----x-----x---x--x--x-|
|--9s10-10-10s12-12-12s10-10s=9--9s7-7--9--9-|
|--------------------------------------------|


   S  E  S  S  E    S  S  S  S  S  S S S  S
|--------------------------------------------||
|--------------------------------------------||
|-11s12-12-12s14---14-14s12-12s11-11s9-9s11--||
|--x-----x--x-------x--x-----x-----x---x-----||
|--9s10-10-10s12---12-12s10-10s=9--9s7-7s=9--||
|--------------------------------------------||


 Verses
  $
  Gtr I
    W             W             W             W
|-------------|-------------|-------------|---------|
|-^-0---------|-^-0---------|-^-0---------|-^-0-----|
|-^-0---------|-^-0---------|-^-0---------|-^-0-----|
|-^-2---------|-^-2---------|-^-2---------|-^-2-----|
|-^-2---------|-^-2---------|-^-2---------|-^-2-----|
|-^-0---------|-^-0---------|-^-0---------|-^-0-----|
|
| Gtr III
|harmonics are played 2nd time only
|   W             W             W             W
|-------------|-------------|-------------|---------|
|-------------|-------------|-------------|---------|
|-<12>--------|-<12>--------|-<12>--------|-<12>----|
|---x---------|-------------|-------------|---------|
|--10---------|-------------|-------------|---------|
|-------------|-------------|-------------|---------|
|             |-Fill 3                   end Fill 3-|
| Gtr IV
|   W             W             W             W
|-------------|-------------|-------------|---------|
|-------------|-------------|-------------|---------|
|--<5>--------|--<5>--------|--<5>--------|--<5>----|
|-------------|-------------|-------------|---------|
|-------------|-------------|-------------|---------|
|-------------|-------------|-------------|---------|
|-Fill 2                                 end Fill 2-|

 Pre-Chorus
  Gtr I
  S E S E S S +S  S S S S S S S   S E S E S S +S  S S S S S S S
|-------------------------------|-------------------------------|
|-------------------------------|-------------------------------|
|-------------------------------|-------------------------------|
|---------------------0---------|---------------------0---------|
|-------2---0-(0)-0-----2s5-0S5-|-------2---0-(0)-0-----2s5-0S5-|
|-0-0-0---0---------2-----------|-0-0-0---0---------2-----------|


  S E S E S S +S  S S S S S S S   S E S E S S +E  S S S S S S
|-------------------------------|-----------------------------||
|-------------------------------|-----------------------------||
|-------------------------------|-----------------------------||
|---------------------0---------|-----------------------------||
|-------2---0-(0)-0-----2s5-0S5-|-------2---0-(0)-0-0-0-0-0-0-||
|-0-0-0---0---------2-----------|-0-0-0---0-------0-0-0-0-0-0-||

[ Tab from: http://www.guitartabs.cc/tabs/s/staind/fade_tab_ver_7.html ]
   Chorus
    $$
    Gtr III
    S S S S S S S S +S  S S S S S E   S S S S S S S S +S  E   S S S S S
||----------------------------------|-----------------------------------|
||o---------------------------------|-----------------------------------|
||----------------------------------|-----------------------------------|
||--4h5-5-5-4h5-5-4-(4)h5-5-5-4h5-5-|-7p5-5-5-7-5-5-7-(7)-7---5-5-5-5-5-|
||o---------------------------------|-----------------------------------|
||----------------------------------|-----------------------------------|
||-Riff A                                                    end Riff A-|
|   Gtrs I, II
|   E   S S E   S S +E    S S S S E   E   E   E   S S +E    S S S S E
||----------------------------------|-0---0---0---0---------------------|
||o---------3-----------------3-3-3-|-1---1---1---1-3-(3)---3-3-3-3-3---|
||--2---2---2-----4-(4)-------2-2-2-|-0---0---0---0-0-(0)---0-0-0-0-0---|
||--0---0---0-----0-(0)---0-0-0-0-0-|-3---3---3---3-0-(0)---0-0-0-0-0---|
||o-x---x---x-----x-------x-x-x-x-x-|-3---3---3---3-2-(2)---2-2-2-2-2---|
||--3---3-3-3---3-3-(3)---3-3-3-3-3-|-1---1---1---1---------------------|


                                   1.
w/Riff A
  E   S S E   S S +E    S S S S E   E   E   E   S S +E    S S S S S S
|---------------------------------|-0---0---0---0----------------------||
|---------3-----------------3-3-3-|-1---1---1---1-3-(3)---3-3-3-3-3---o||
|-2---2---2-----4-(4)-------2-2-2-|-0---0---0---0-2-(2)---2-2-2-2-2----||
|-0---0---0-----0-(0)---0-0-0-0-0-|-3---3---3---3-0-(0)---0-0-0-0-0-x--||
|-x---x---x-----x-------x-x-x-x-x-|-3---3---3---3-x-------x-x-x-x-x-x-o||
|-3---3-3-3---3-3-(3)---3-3-3-3-3-|-1---1---1---1-2-(2)---2-2-2-2-2-x--||


  2.
                           To Coda            D.S. al Coda
                           To Coda
                                                 >
  S S S S S S S S +S  E S +S  E S    W          +W
|---------------------------------|-----------|------------||
|---------------------------------|-----------|------------||
|---------------------------------|-----------|------------||
|-7p5-5-5-7p5-5-7-(7)-7-5-(5)s4-4-|--5--------|-(5)--------||
|---------------------------------|-----------|------------||
|---------------------------------|-----------|------------||
|                                 |-Fill 4  --|
| E   E   E   S S +H                 W           W
|-0---0---0---0-------------------|-----------|------------||
|-1---1---1---1-3-(3)-------------|-^0--------|-^0---------||
|-0---0---0---0-2-(2)-------------|-^0--------|-^0---------||
|-3---3---3---3-0-(0)-------------|-^2--------|-^2---------||
|-3---3---3---3-x-----------------|-^2--------|-^2---------||
|-1---1---1---1-2-(2)-------------|-^0--------|-^0---------||


 Bridge
  &
  Gtr III
  S E S  E S S +E  S S S E.         S E S  E S S +E  S S S E.
|---------------------------------|---------------------------------|
|---------------------------------|---------------------------------|
|---------------------------------|---------------------------------|
|-5-5-5--7-7-4-(4)-4-4-4-4--------|-5-5-5--7-7-4-(4)-4-4-4-4--------|
|---------------------------------|---------------------------------|
|---------------------------------|---------------------------------|
|-Riff B                                                 end Riff B-|
| Gtrs I, II
| PM                   PM|          PM                   PM|
| S E S  E S S +E  S S S S  S T T   S E S  E s S +E  S S S S  S T T
|---------------------------------|---------------------------------|
|--------3---3-(3)-3-3------------|--------3---3-(3)-3-3------------|
|---0-0/-0---2-(2)-2-2------------|---0-0/-0---2-(2)-2-2------------|
|---2-2/-0-0-0-(0)-0-0-0-0--------|---2-2/-0---0-(0)-0-0-0-0--------|
|-2-2-2/-x-0-0-(0)-0-0-0-0--4-----|-2-2-2/-x-0-0-(0)-0-0-0-0--4-----|
|-0-0-0/-3-x------------------0-0-|-0-0-0/-3-0------------------0-0-|


                                               D.S.S. al Dbl. Coda
w/Riff B
  PM                   PM|          PM
  S E S  E S S +E  S S S S  S T T   S E S  E s S +E  S S S S  S S
|---------------------------------|--------------------------------||
|--------3---3-(3)-3-3------------|--------3---3-(3)-3-3-3-3--3-3--||
|---0-0/-0---2-(2)-2-2------------|---0-0/-0---2-(2)-2-2-2-2--2-2--||
|---2-2/-0-0-0-(0)-0-0-0-0--------|---2-2/-0---0-(0)-0-0-0-0--0-0--||
|-2-2-2/-x-0-0-(0)-0-0-0-0--4-----|-2-2-2/-x-0-0-(0)-0-0-0-0--0-0--||
|-0-0-0/-3-x------------------0-0-|-0-0-0/-3-0---------------------||


 Outro
  &&
  Gtr I
w/Fill 4     |-w/Fill 3
w/Fill 2
   W             W             W             H.      +Q
|------------|-------------|-------------|----------------*|
|-^0---------|-^-0---------|-^-0---------|-^-0-------(0)--*|
|-^0---------|-^-0---------|-^-0---------|-^-0-------(0)--*|
|-^2---------|-^-2---------|-^-2---------|-^-2-------(2)--*|
|-^2---------|-^-2---------|-^-2---------|-^-2-------(2)--*|
|-^0---------|-^-0---------|-^-0---------|-^-0-------(0)--*|
Comments