Staind - Fade Chords & Tabs

 

Fade Chords & Tabs

Staind Chords & Tabs

Version: 6 Type: Tab 0 ratings
1 star 2 stars 3 stars 4 stars 5 stars
comments

Fade Tab

   
This isnt mikes regular tuning
ab eb ab db gb bb eb

INTRO
||--0---(0)----(0)---------|
||o-0---(0)----(0)--------o|
||--9---(9)----(9)---------|
||--7---(7)----(7)---------|
||o-0---(0)----(0)--------o|
||--7---(7)----(7)---------|
volume swells

Riff A
|--------------------------------------------------------------------|
|--------------------------------------------------------------------|
|--------------------------------------------------------------------|
|--------------------------------------------------------------------|
|-5h7--7-7p5-5-5-5/-3--5-3h5-5-0-|h5-7--7p7-5-5-5-|-5/-3--5h3-5-5-0--|
|-7----7-7---7-7-5/-3--5-3h5-5-0-|-7----7-7---7-7-|-5/-3--5h3-5-5-0--|

Riff B
||--^0--------|-(0)---------|
||o-^0--------|-(0)--------o|
||--^9--------|-(9)---------|
||--^7--------|-(7)---------|
||o-^0--------|-(0)--------o|
||--^7--------|-(7)---------|
Arpegio up NO DELAY!

|----------|-------------------|
|----------|-------------------|
|----------|-------------------|
|---------0|-------------------|
|---0--7---|--2----------------|
|-7--7--7--|-0-5-2/5-0-5-7-----|
[ Tab from: http://www.guitartabs.cc/tabs/s/staind/fade_tab_ver_6.html ]
Choruses
|-------------------------------------------------------------------------------------|
|-------------------------------------------------------------------------------------|
|-----------12------------------------12----------------------------------------------|
|-12--12-----------14--14-------12-12----15--15--15-15-----/17-(17)--17-17-17--(17)\--|
|-10--10--------10--------10-10-10-------13--13--13-13-13\-15--(15)--15-15-15--(15)\--|
|-10-----10-----10--------10----10-------12--12--12----12\-14--(14)--14-14-14--(14)\--|

|----------------------|--------------------------------------------------|
|----------------------|--------------------------------------------------|
|-----------12---------|----------------12--------------------------------|
|-12--12-----------14--|-14-------12-12----8--8--8-8-8-12--12--12-12--12--|
|-10--10--------10-----|----10-10-10-------8--8--8-8-8-10--10-----10--10--|
|-10-----10-----10-----|----10----10-------8--8--8-8-8--9---9------9---9--|

Solo type interlude thingy

|-----------------|-------------------|-----------------|--------------------|
|-----------------|-------------------|-----------------|--------------------|
|--------12-------|-------------------|--------12-------|--------------------|
|-7-7----10-----5-|-(5)---------------|-7-7----10-----5-|-(5)----------------|
|-7-7----10-----5-|-(5)------5-5-4/-5-|-7-7----10-----5-|-(5)------5-5-4/-5--|
|-7----7-10--10-5-|-(5)--5-0-5-5-4/-5-|-7----7-10--10-5-|-(5)--5-0-5-5-4/-5--|

Thats all to it just figure out how the parts fit in this is 100% correct theres 
no BS behind my game.
Comments