Staind - Fade Chords & Tabs

 

Fade Chords & Tabs

Staind Chords & Tabs

Version: 4 Type: Tab 0 ratings
1 star 2 stars 3 stars 4 stars 5 stars
comments

Fade Tab

   
Song:  Fade
Group: Staind
Album: Break The Cycle
Transcribed by: hagop.mouradian@utoronto.ca

Drop D, and down half a step (C#, G#, C#, F#, Bb, Eb)

Intro (repeat as necessary)...

Eb|-----0-----------|-----0-----------|
Bb|-----0-----------|-----0-----------|
F#|-----0-----------|-----0-----------|
C#|-----2-----------|-----2-----------|
G#|-----2-----------|-----2-----------|
C#|-----2-----0-----|-----2-----0-----|

Verse...

     I try and breathe, memories overtaking me.
     I try to face them but, the thought is too much to conveice

Eb|--0--------------------|--0--------------------|
Bb|--0--------------------|--0--------------------|
F#|--0--------------------|--0--------------------|
C#|--2--------------------|--2--------------------|
G#|--2--------------------|--2--------------------|
C#|--2--------------0-----|--2--------------0-----|

Pre-chorus...

     I only know that I can change, everything else just stays the same.
     So now I step up from the darkness that my life became.
[ Tab from: http://www.guitartabs.cc/tabs/s/staind/fade_tab_ver_4.html ]
Eb|--X-----X-----X-----X-----X-----|-----X-----X-----X-----X-----X-----|
Bb|--X-----X-----X-----3-----3-----|-----X-----X-----X-----3-----3-----|
F#|--X-----X-----X-----2-----2-----|-----X-----X-----X-----2-----2-----|
C#|--2-----2-----2-----0-----0-----|-----2-----2-----2-----0-----0-----|
G#|--2-----2-----2-----0-----0-----|-----2-----2-----2-----0-----0-----|
C#|--2-----2-----2-----0-----0-----|-----2-----2-----2-----0-----0-----|

Chorus (heavy distortion)...

     I just needed someone to talk to but you were just too busy with yourself.
     You were never there for me to express how I felt, I just pushed it down.
     But now I'm older and I feel like I should let this anger fade.
     But it seems the surface I am scratching is the bed that I have made.

Eb|--X-----X-----X-----X-----X-----|-----X-----X-----X-----X-----X-----X-----|
Bb|--X-----X-----X-----X-----X-----|-----X-----X-----X-----X-----3-----3-----|
F#|--X-----X-----X-----X-----X-----|-----X-----X-----X-----X-----2-----2-----|
C#|--5-----5-----5-----5-----5-----|-----3-----3-----3-----3-----0-----0-----|
G#|--5-----5-----5-----5-----5-----|-----3-----3-----3-----3-----0-----0-----|
C#|--5-----5-----5-----5-----5-----|-----3-----3-----3-----3-----0-----0-----|

Outro - same as intro.

Great song! Mail me if you have any comments/complaints.
Comments